999
DXF file: C:\MDC\DELSEAL\MINI\FIXED\110003_SC.dxf
999
Pro/ENGINEER 2001150 by Parametric Technology Corporation
0
SECTION
2
HEADER
9
$ACADVER
1
AC1014
9
$EXTMAX
10
11.0000000000
20
8.5000000000
9
$EXTMIN
10
0.0000000000
20
0.0000000000
9
$LIMMIN
10
0.0000000000
20
0.0000000000
9
$LIMMAX
10
11.0000000000
20
8.5000000000
9
$VIEWCTR
10
5.5000000000
20
4.2500000000
9
$VIEWSIZE
40
8.5000000000
9
$CLAYER
8
0
9
$LTSCALE
40
0.6050000000
9
$CELTYPE
6
BYLAYER
9
$DIMSCALE
40
1
9
$DIMASZ
40
0.1875000000
9
$DIMEXO
40
0.0687500000
9
$DIMDLI
40
0.4180000000
9
$DIMEXE
40
0.1980000000
9
$DIMCEN
40
0.0990000000
9
$DIMLFAC
40
1.0000000000
9
$DIMTXT
40
0.1562500000
9
$DIMTOL
70
0
9
$DIMTFAC
40
1.0000000000
0
ENDSEC
0
SECTION
2
CLASSES
0
ENDSEC
0
SECTION
2
TABLES
0
TABLE
2
VPORT
5
1F4
100
AcDbSymbolTable
70
2
0
VPORT
5
1F5
100
AcDbSymbolTableRecord
100
AcDbViewportTableRecord
2
*ACTIVE
70
0
10
0.0
20
0.0
11
1.0
21
1.0
12
5.5000000000
22
4.2500000000
13
0.0
23
0.0
14
1.0
24
1.0
15
0.0
25
0.0
16
0.0
26
0.0
36
1.0
17
0.0
27
0.0
37
0.0
40
8.5000000000
41
1.2941176471
42
50.0
43
0.0
44
0.0
50
0.0
51
0.0
71
0
72
100
73
1
74
1
75
0
76
0
77
0
78
0
0
ENDTAB
0
TABLE
2
LTYPE
5
1F6
100
AcDbSymbolTable
70
6
0
LTYPE
5
1F7
100
AcDbSymbolTableRecord
100
AcDbLinetypeTableRecord
2
BYBLOCK
70
0
3

72
65
73
0
40
0.0
0
LTYPE
5
1F8
100
AcDbSymbolTableRecord
100
AcDbLinetypeTableRecord
2
BYLAYER
70
0
3

72
65
73
0
40
0.0
0
LTYPE
5
1F9
100
AcDbSymbolTableRecord
100
AcDbLinetypeTableRecord
2
CONTINUOUS
70
64
3
Solid line
72
65
73
0
40
0
0
LTYPE
5
1FA
100
AcDbSymbolTableRecord
100
AcDbLinetypeTableRecord
2
CENTER
70
64
3
____ _ ____ _ ____ _ ____ _ ____ _ ____ _ ____
72
65
73
4
40
0.6
49
0.375
74
0
49
-0.075
74
0
49
0.075
74
0
49
-0.075
74
0
0
LTYPE
5
1FB
100
AcDbSymbolTableRecord
100
AcDbLinetypeTableRecord
2
HIDDEN
70
64
3
- - - - - - - - - - - - - - - - - - - -
72
65
73
2
40
0.2
49
0.1
74
0
49
-0.1
74
0
0
LTYPE
5
1FC
100
AcDbSymbolTableRecord
100
AcDbLinetypeTableRecord
2
PHANTOM
70
64
3
_____ _ _ _____ _ _ _____ _ _ _____
72
65
73
6
40
0.8
49
0.45
74
0
49
-0.05
74
0
49
0.1
74
0
49
-0.05
74
0
49
0.1
74
0
49
-0.05
74
0
0
LTYPE
5
1FD
100
AcDbSymbolTableRecord
100
AcDbLinetypeTableRecord
2
DOT
70
64
3
. . . . . . . . . . . . . . . . . . . .
72
65
73
2
40
0.2
49
0.1
74
0
49
-0.1
74
0
0
LTYPE
5
1FE
100
AcDbSymbolTableRecord
100
AcDbLinetypeTableRecord
2
DASHED
70
64
3
- - - - - - - - - - - - - - - - - - - -
72
65
73
2
40
0.2
49
0.1
74
0
49
-0.1
74
0
0
ENDTAB
0
TABLE
2
LAYER
5
1FF
100
AcDbSymbolTable
70
36
0
LAYER
5
200
100
AcDbSymbolTableRecord
100
AcDbLayerTableRecord
2
0
70
0
62
7
6
CONTINUOUS
0
LAYER
5
201
100
AcDbSymbolTableRecord
100
AcDbLayerTableRecord
2
DEFAULT_1
70
0
62
7
6
CENTER
0
LAYER
5
202
100
AcDbSymbolTableRecord
100
AcDbLayerTableRecord
2
DEFAULT_2
70
0
62
8
6
HIDDEN
0
LAYER
5
203
100
AcDbSymbolTableRecord
100
AcDbLayerTableRecord
2
DEFAULT_3
70
0
62
7
6
PHANTOM
0
LAYER
5
204
100
AcDbSymbolTableRecord
100
AcDbLayerTableRecord
2
8_ALL_NOTES_BALLOONS_SYMBOLS_GT
70
0
62
7
6
CONTINUOUS
0
ENDTAB
0
TABLE
2
STYLE
5
205
100
AcDbSymbolTable
70
1
0
STYLE
5
206
100
AcDbSymbolTableRecord
100
AcDbTextStyleTableRecord
2
STANDARD
70
0
40
0.0
41
1.0
50
0.0
71
0
42
0.0
3
txt
4

0
STYLE
5
207
100
AcDbSymbolTableRecord
100
AcDbTextStyleTableRecord
2
TEXTSTYLE_0
70
0
40
0.0
41
0.80
50
0.0
71
0
42
0.2
3
txt
4

0
ENDTAB
0
TABLE
2
VIEW
5
208
100
AcDbSymbolTable
70
0
0
ENDTAB
0
TABLE
2
UCS
5
209
100
AcDbSymbolTable
70
0
0
ENDTAB
0
TABLE
2
APPID
5
20A
100
AcDbSymbolTable
70
1
0
APPID
5
20B
100
AcDbSymbolTableRecord
100
AcDbRegAppTableRecord
2
ACAD
70
0
0
ENDTAB
0
TABLE
2
DIMSTYLE
5
20C
100
AcDbSymbolTable
70
1
0
DIMSTYLE
105
20D
100
AcDbSymbolTableRecord
100
AcDbDimStyleTableRecord
2
STANDARD
70
0
3

4

5

6

7

40
1.0
41
0.18
42
0.0625
43
0.38
44
0.18
45
0.0
46
0.0
47
0.0050000000
48
0.0050000000
140
0.1562500000
141
0.09
142
0.0
143
25.4
144
1.0000000000
145
0.0
146
1.0000000000
147
0.09
71
0
72
0
73
1
74
1
75
0
76
0
77
0
78
0
170
0
171
2
172
0
173
0
174
0
175
0
176
0
177
0
178
0
270
2
271
3
272
4
273
2
274
2
340
206
275
0
280
0
281
0
282
0
283
1
284
0
285
0
286
0
287
3
288
0
0
ENDTAB
0
TABLE
2
BLOCK_RECORD
5
20E
100
AcDbSymbolTable
70
0
0
BLOCK_RECORD
5
20F
100
AcDbSymbolTableRecord
100
AcDbBlockTableRecord
2
*MODEL_SPACE
0
BLOCK_RECORD
5
210
100
AcDbSymbolTableRecord
100
AcDbBlockTableRecord
2
*PAPER_SPACE
0
ENDTAB
0
ENDSEC
0
SECTION
2
BLOCKS
0
BLOCK
5
211
100
AcDbEntity
8
0
100
AcDbBlockBegin
2
*MODEL_SPACE
70
0
10
0.0000000000
20
0.0000000000
3
*MODEL_SPACE
1

3
*MODEL_SPACE
1

0
ENDBLK
5
212
100
AcDbEntity
8
0
100
AcDbBlockEnd
0
BLOCK
5
213
100
AcDbEntity
8
0
100
AcDbBlockBegin
2
*PAPER_SPACE
70
0
10
0.0000000000
20
0.0000000000
3
*PAPER_SPACE
1

3
*PAPER_SPACE
1

0
ENDBLK
5
214
100
AcDbEntity
8
0
100
AcDbBlockEnd
0
ENDSEC
0
SECTION
2
ENTITIES
0
LINE
5
215
100
AcDbEntity
8
0
100
AcDbLine
62
2
6
CONTINUOUS
10
4.2797559761
20
2.1484686255
11
6.9047559761
21
2.1484686255
0
LINE
5
216
100
AcDbEntity
8
0
100
AcDbLine
62
2
6
CONTINUOUS
10
4.2797559761
20
2.1484686255
11
4.2797559761
21
2.6953436255
0
LINE
5
217
100
AcDbEntity
8
0
100
AcDbLine
62
2
6
CONTINUOUS
10
4.2797559761
20
2.6953436255
11
6.9047559761
21
2.6953436255
0
LINE
5
218
100
AcDbEntity
8
0
100
AcDbLine
62
2
6
CONTINUOUS
10
6.9047559761
20
2.1484686255
11
6.9047559761
21
2.6953436255
0
TEXT
5
219
100
AcDbEntity
8
0
100
AcDbText
62
2
6
CONTINUOUS
10
5.1547559761
20
2.3437811255
7
TEXTSTYLE_0
40
0.1562500000
1
F133050
72
5
11
6.0297559761
21
2.3437811255
100
AcDbText
0
LINE
5
21A
100
AcDbEntity
8
0
100
AcDbLine
62
7
6
CONTINUOUS
10
0.0000000000
20
0.0000000000
11
0.0000000000
21
8.5000000000
0
LINE
5
21B
100
AcDbEntity
8
0
100
AcDbLine
62
7
6
CONTINUOUS
10
0.0000000000
20
0.0000000000
11
11.0000000000
21
0.0000000000
0
LINE
5
21C
100
AcDbEntity
8
0
100
AcDbLine
62
7
6
CONTINUOUS
10
0.0000000000
20
8.5000000000
11
11.0000000000
21
8.5000000000
0
LINE
5
21D
100
AcDbEntity
8
0
100
AcDbLine
62
7
6
CONTINUOUS
10
11.0000000000
20
0.0000000000
11
11.0000000000
21
8.5000000000
0
LINE
5
21E
100
AcDbEntity
8
0
100
AcDbLine
62
7
6
CONTINUOUS
10
5.4291284861
20
4.3060532869
11
5.6941284861
21
4.3060532869
0
LINE
5
21F
100
AcDbEntity
8
0
100
AcDbLine
62
7
6
CONTINUOUS
10
5.4291284861
20
4.3540532869
11
5.6941284861
21
4.3540532869
0
LINE
5
220
100
AcDbEntity
8
0
100
AcDbLine
62
7
6
CONTINUOUS
10
5.4191284861
20
5.6260532869
11
5.4291284861
21
5.6360532869
0
LINE
5
221
100
AcDbEntity
8
0
100
AcDbLine
62
2
6
CONTINUOUS
10
5.4191284861
20
5.6244582869
11
5.4307234861
21
5.6360532869
0
LINE
5
222
100
AcDbEntity
8
0
100
AcDbLine
62
7
6
CONTINUOUS
10
5.4191284861
20
4.3160532869
11
5.4291284861
21
4.3060532869
0
LINE
5
223
100
AcDbEntity
8
0
100
AcDbLine
62
2
6
CONTINUOUS
10
5.5054157937
20
5.5880532869
11
5.5534157937
21
5.6360532869
0
LINE
5
224
100
AcDbEntity
8
0
100
AcDbLine
62
7
6
CONTINUOUS
10
5.4191284861
20
5.4060532869
11
5.4291284861
21
5.4160532869
0
LINE
5
225
100
AcDbEntity
8
0
100
AcDbLine
62
7
6
CONTINUOUS
10
5.4291284861
20
4.5260532869
11
5.6941284861
21
4.5260532869
0
LINE
5
226
100
AcDbEntity
8
0
100
AcDbLine
62
7
6
CONTINUOUS
10
5.4676946406
20
4.5490532869
11
5.4191284861
21
4.5490532869
0
LINE
5
227
100
AcDbEntity
8
0
100
AcDbLine
62
7
6
CONTINUOUS
10
5.4191284861
20
4.5360532869
11
5.4291284861
21
4.5260532869
0
LINE
5
228
100
AcDbEntity
8
0
100
AcDbLine
62
2
6
CONTINUOUS
10
5.4331081014
20
5.3930532869
11
5.4561081014
21
5.4160532869
0
LINE
5
229
100
AcDbEntity
8
0
100
AcDbLine
62
2
6
CONTINUOUS
10
5.6281081014
20
5.5880532869
11
5.6761081014
21
5.6360532869
0
LINE
5
22A
100
AcDbEntity
8
0
100
AcDbLine
62
7
6
CONTINUOUS
10
5.4691284861
20
4.6110532869
11
5.4451284861
21
4.6110532869
0
LINE
5
22B
100
AcDbEntity
8
0
100
AcDbLine
62
7
6
CONTINUOUS
10
5.6941284861
20
5.5880532869
11
5.7041284861
21
5.5980532869
0
LINE
5
22C
100
AcDbEntity
8
0
100
AcDbLine
62
7
6
CONTINUOUS
10
5.6941284861
20
4.3540532869
11
5.7041284861
21
4.3440532869
0
LINE
5
22D
100
AcDbEntity
8
0
100
AcDbLine
62
2
6
CONTINUOUS
10
5.4691284861
20
5.3063813638
11
5.5788004091
21
5.4160532869
0
LINE
5
22E
100
AcDbEntity
8
0
100
AcDbLine
62
7
6
CONTINUOUS
10
5.4676946406
20
5.3930532869
11
5.4451284861
21
5.3310532869
0
LINE
5
22F
100
AcDbEntity
8
0
100
AcDbLine
62
7
6
CONTINUOUS
10
5.4691284861
20
4.7200532869
11
5.7041284861
21
4.7200532869
0
LINE
5
230
100
AcDbEntity
8
0
100
AcDbLine
62
7
6
CONTINUOUS
10
5.4676946406
20
4.5490532869
11
5.4451284861
21
4.6110532869
0
LINE
5
231
100
AcDbEntity
8
0
100
AcDbLine
62
2
6
CONTINUOUS
10
5.5074927168
20
5.2220532869
11
5.6978106014
21
5.4123711715
0
LINE
5
232
100
AcDbEntity
8
0
100
AcDbLine
62
7
6
CONTINUOUS
10
5.4191284861
20
4.3160532869
11
5.4191284861
21
5.6260532869
0
LINE
5
233
100
AcDbEntity
8
0
100
AcDbLine
62
7
6
CONTINUOUS
10
5.4291284861
20
4.3540532869
11
5.4291284861
21
4.5260532869
0
LINE
5
234
100
AcDbEntity
8
0
100
AcDbLine
62
7
6
CONTINUOUS
10
5.4291284861
20
5.4160532869
11
5.4291284861
21
5.5880532869
0
LINE
5
235
100
AcDbEntity
8
0
100
AcDbLine
62
7
6
CONTINUOUS
10
5.4451284861
20
5.3310532869
11
5.4451284861
21
4.6110532869
0
LINE
5
236
100
AcDbEntity
8
0
100
AcDbLine
62
7
6
CONTINUOUS
10
5.4691284861
20
4.6110532869
11
5.4691284861
21
5.3310532869
0
LINE
5
237
100
AcDbEntity
8
0
100
AcDbLine
62
2
6
CONTINUOUS
10
5.6301850245
20
5.2220532869
11
5.7041284861
21
5.2959967484
0
LINE
5
238
100
AcDbEntity
8
0
100
AcDbLine
62
7
6
CONTINUOUS
10
5.6941284861
20
4.3540532869
11
5.6941284861
21
4.5260532869
0
LINE
5
239
100
AcDbEntity
8
0
100
AcDbLine
62
7
6
CONTINUOUS
10
5.6941284861
20
5.4160532869
11
5.6941284861
21
5.5880532869
0
LINE
5
23A
100
AcDbEntity
8
0
100
AcDbLine
62
2
6
CONTINUOUS
10
5.4734319003
20
4.6972232396
11
5.4962619476
21
4.7200532869
0
LINE
5
23B
100
AcDbEntity
8
0
100
AcDbLine
62
7
6
CONTINUOUS
10
5.7041284861
20
4.3160532869
11
5.7041284861
21
5.6260532869
0
LINE
5
23C
100
AcDbEntity
8
0
100
AcDbLine
62
2
6
CONTINUOUS
10
5.4270413707
20
4.5281404022
11
5.4479542553
21
4.5490532869
0
LINE
5
23D
100
AcDbEntity
8
0
100
AcDbLine
62
2
6
CONTINUOUS
10
5.4624269944
20
4.5635260259
11
5.6189542553
21
4.7200532869
0
LINE
5
23E
100
AcDbEntity
8
0
100
AcDbLine
62
7
6
CONTINUOUS
10
5.4691284861
20
5.2220532869
11
5.7041284861
21
5.2220532869
0
LINE
5
23F
100
AcDbEntity
8
0
100
AcDbLine
62
2
6
CONTINUOUS
10
5.5476465630
20
4.5260532869
11
5.7041284861
21
4.6825352099
0
LINE
5
240
100
AcDbEntity
8
0
100
AcDbLine
62
7
6
CONTINUOUS
10
5.4191284861
20
4.3440532869
11
5.4291284861
21
4.3540532869
0
LINE
5
241
100
AcDbEntity
8
0
100
AcDbLine
62
7
6
CONTINUOUS
10
5.4691284861
20
5.3310532869
11
5.4451284861
21
5.3310532869
0
LINE
5
242
100
AcDbEntity
8
0
100
AcDbLine
62
7
6
CONTINUOUS
10
5.4191284861
20
5.5980532869
11
5.4291284861
21
5.5880532869
0
LINE
5
243
100
AcDbEntity
8
0
100
AcDbLine
62
2
6
CONTINUOUS
10
5.4503388707
20
4.3060532869
11
5.4983388707
21
4.3540532869
0
LINE
5
244
100
AcDbEntity
8
0
100
AcDbLine
62
2
6
CONTINUOUS
10
5.6703388707
20
4.5260532869
11
5.7041284861
21
4.5598429022
0
LINE
5
245
100
AcDbEntity
8
0
100
AcDbLine
62
7
6
CONTINUOUS
10
5.6941284861
20
4.5260532869
11
5.7041284861
21
4.5360532869
0
LINE
5
246
100
AcDbEntity
8
0
100
AcDbLine
62
7
6
CONTINUOUS
10
5.6941284861
20
5.4160532869
11
5.7041284861
21
5.4060532869
0
LINE
5
247
100
AcDbEntity
8
0
100
AcDbLine
62
7
6
CONTINUOUS
10
5.4676946406
20
5.3930532869
11
5.4191284861
21
5.3930532869
0
LINE
5
248
100
AcDbEntity
8
0
100
AcDbLine
62
7
6
CONTINUOUS
10
5.4291284861
20
5.4160532869
11
5.6941284861
21
5.4160532869
0
LINE
5
249
100
AcDbEntity
8
0
100
AcDbLine
62
2
6
CONTINUOUS
10
5.5730311784
20
4.3060532869
11
5.6210311784
21
4.3540532869
0
LINE
5
24A
100
AcDbEntity
8
0
100
AcDbLine
62
7
6
CONTINUOUS
10
5.6941284861
20
4.3060532869
11
5.7041284861
21
4.3160532869
0
LINE
5
24B
100
AcDbEntity
8
0
100
AcDbLine
62
7
6
CONTINUOUS
10
5.6941284861
20
5.6360532869
11
5.7041284861
21
5.6260532869
0
LINE
5
24C
100
AcDbEntity
8
0
100
AcDbLine
62
7
6
CONTINUOUS
10
5.4291284861
20
5.5880532869
11
5.6941284861
21
5.5880532869
0
LINE
5
24D
100
AcDbEntity
8
0
100
AcDbLine
62
7
6
CONTINUOUS
10
5.4291284861
20
5.6360532869
11
5.6941284861
21
5.6360532869
0
ARC
5
24E
100
AcDbEntity
8
0
100
AcDbCircle
62
7
6
CONTINUOUS
10
5.4614787983
20
4.6700532869
40
0.0300000000
100
AcDbArc
50
284.7729684890
51
75.2270315110
0
ARC
5
24F
100
AcDbEntity
8
0
100
AcDbCircle
62
7
6
CONTINUOUS
10
5.4614787983
20
5.2720532869
40
0.0300000000
100
AcDbArc
50
284.7729684890
51
75.2270315110
0
ENDSEC
0
SECTION
2
OBJECTS
0
DICTIONARY
5
250
100
AcDbDictionary
3
ACAD_GROUP
350
251
3
ACAD_MLINESTYLE
350
252
0
DICTIONARY
5
251
102
{ACAD_REACTORS
330
250
102
}
100
AcDbDictionary
0
DICTIONARY
5
252
102
{ACAD_REACTORS
330
250
102
}
100
AcDbDictionary
3
STANDARD
350
253
0
MLINESTYLE
5
253
102
{ACAD_REACTORS
330
252
102
}
100
AcDbMlineStyle
2
STANDARD
70
0
3

62
256
51
90.0
52
90.0
71
2
49
0.5
62
256
6
BYLAYER
49
-0.5
62
256
6
BYLAYER
0
ENDSEC
0
EOF
