ISO-10303-21;
HEADER;
FILE_DESCRIPTION (( 'STEP AP214' ),
    '1' );
FILE_NAME ('403502.STEP',
    '2024-01-13T07:52:20',
    ( '' ),
    ( '' ),
    'SwSTEP 2.0',
    'SolidWorks 2022',
    '' );
FILE_SCHEMA (( 'AUTOMOTIVE_DESIGN' ));
ENDSEC;

DATA;
#1 = CARTESIAN_POINT ( 'NONE',  ( 2.250000000000000888, 0.000000000000000000, -3.000000000000000444 ) ) ;
#2 = PRODUCT_RELATED_PRODUCT_CATEGORY ( 'part', '', ( #114 ) ) ;
#3 = DIRECTION ( 'NONE',  ( 1.000000000000000000, 0.000000000000000000, 0.000000000000000000 ) ) ;
#4 = ORIENTED_EDGE ( 'NONE', *, *, #178, .T. ) ;
#5 = ORIENTED_EDGE ( 'NONE', *, *, #123, .T. ) ;
#6 = ORIENTED_EDGE ( 'NONE', *, *, #76, .T. ) ;
#7 = DIRECTION ( 'NONE',  ( 0.000000000000000000, 0.000000000000000000, 1.000000000000000000 ) ) ;
#8 = CARTESIAN_POINT ( 'NONE',  ( 2.250000000000000000, 0.000000000000000000, 0.000000000000000000 ) ) ;
#9 = EDGE_CURVE ( 'NONE', #94, #119, #49, .T. ) ;
#10 = CARTESIAN_POINT ( 'NONE',  ( 0.000000000000000000, 0.000000000000000000, 0.000000000000000000 ) ) ;
#11 = DIRECTION ( 'NONE',  ( 0.000000000000000000, 0.000000000000000000, -1.000000000000000000 ) ) ;
#12 = AXIS2_PLACEMENT_3D ( 'NONE', #206, #173, #108 ) ;
#13 = MANIFOLD_SOLID_BREP ( 'Sweep1', #142 ) ;
#14 = CARTESIAN_POINT ( 'NONE',  ( -0.6850000000000001643, 0.000000000000000000, 0.000000000000000000 ) ) ;
#15 = AXIS2_PLACEMENT_3D ( 'NONE', #38, #7, #3 ) ;
#16 = SURFACE_SIDE_STYLE ('',( #18 ) ) ;
#17 = DIRECTION ( 'NONE',  ( -0.000000000000000000, -1.000000000000000000, 0.000000000000000000 ) ) ;
#18 = SURFACE_STYLE_FILL_AREA ( #111 ) ;
#19 = COLOUR_RGB ( '',0.6470588235294117974, 0.6196078431372549211, 0.5882352941176470784 ) ;
#20 = ADVANCED_FACE ( 'NONE', ( #139 ), #57, .F. ) ;
#21 = TOROIDAL_SURFACE ( 'NONE', #199, 2.250000000000000000, 0.7500000000000001110 ) ;
#22 = ORIENTED_EDGE ( 'NONE', *, *, #207, .T. ) ;
#23 = AXIS2_PLACEMENT_3D ( 'NONE', #107, #208, #223 ) ;
#24 = PRODUCT_CONTEXT ( 'NONE', #60, 'mechanical' ) ;
#25 = EDGE_CURVE ( 'NONE', #137, #213, #203, .T. ) ;
#26 = EDGE_LOOP ( 'NONE', ( #146, #5, #4, #134 ) ) ;
#27 =( NAMED_UNIT ( * ) PLANE_ANGLE_UNIT ( ) SI_UNIT ( $, .RADIAN. ) );
#28 = CARTESIAN_POINT ( 'NONE',  ( 2.250000000000000000, 9.184850993605150903E-17, 0.000000000000000000 ) ) ;
#29 = DIRECTION ( 'NONE',  ( -0.000000000000000000, -0.000000000000000000, -1.000000000000000000 ) ) ;
#30 = CARTESIAN_POINT ( 'NONE',  ( 0.000000000000000000, 0.000000000000000000, 0.000000000000000000 ) ) ;
#31 = PRODUCT_DEFINITION_CONTEXT ( 'detailed design', #212, 'design' ) ;
#32 = FACE_OUTER_BOUND ( 'NONE', #44, .T. ) ;
#33 = CARTESIAN_POINT ( 'NONE',  ( 2.250000000000000444, 0.000000000000000000, -2.935000000000000053 ) ) ;
#34 =( GEOMETRIC_REPRESENTATION_CONTEXT ( 3 ) GLOBAL_UNCERTAINTY_ASSIGNED_CONTEXT ( ( #125 ) ) GLOBAL_UNIT_ASSIGNED_CONTEXT ( ( #225, #67, #187 ) ) REPRESENTATION_CONTEXT ( 'NONE', 'WORKASPACE' ) );
#35 = ADVANCED_FACE ( 'NONE', ( #186, #32 ), #202, .F. ) ;
#36 = DIRECTION ( 'NONE',  ( 0.000000000000000000, 0.000000000000000000, -1.000000000000000000 ) ) ;
#37 = PRODUCT_DEFINITION_FORMATION_WITH_SPECIFIED_SOURCE ( 'ANY', '', #114, .NOT_KNOWN. ) ;
#38 = CARTESIAN_POINT ( 'NONE',  ( 0.000000000000000000, 0.000000000000000000, 0.000000000000000000 ) ) ;
#39 = EDGE_LOOP ( 'NONE', ( #200, #196 ) ) ;
#40 = EDGE_CURVE ( 'NONE', #213, #137, #120, .T. ) ;
#41 = APPLICATION_PROTOCOL_DEFINITION ( 'draft international standard', 'automotive_design', 1998, #212 ) ;
#42 = TOROIDAL_SURFACE ( 'NONE', #151, 2.250000000000000000, 0.6850000000000000533 ) ;
#43 = ORIENTED_EDGE ( 'NONE', *, *, #25, .F. ) ;
#44 = EDGE_LOOP ( 'NONE', ( #122, #198 ) ) ;
#45 = CARTESIAN_POINT ( 'NONE',  ( 2.250000000000000000, 0.000000000000000000, 0.000000000000000000 ) ) ;
#46 = AXIS2_PLACEMENT_3D ( 'NONE', #124, #130, #156 ) ;
#47 = DIRECTION ( 'NONE',  ( 1.000000000000000000, 0.000000000000000000, 0.000000000000000000 ) ) ;
#48 = DIRECTION ( 'NONE',  ( 1.000000000000000000, -0.000000000000000000, 1.836970198721029688E-16 ) ) ;
#49 = CIRCLE ( 'NONE', #179, 0.7500000000000001110 ) ;
#50 = DIRECTION ( 'NONE',  ( 0.000000000000000000, 0.000000000000000000, -1.000000000000000000 ) ) ;
#51 = CARTESIAN_POINT ( 'NONE',  ( 2.250000000000000000, 0.000000000000000000, 0.000000000000000000 ) ) ;
#52 = CIRCLE ( 'NONE', #220, 3.000000000000000444 ) ;
#53 = CARTESIAN_POINT ( 'NONE',  ( 2.250000000000000444, 0.000000000000000000, -1.564999999999999725 ) ) ;
#54 = CIRCLE ( 'NONE', #172, 0.6850000000000001643 ) ;
#55 = ORIENTED_EDGE ( 'NONE', *, *, #207, .F. ) ;
#56 = ORIENTED_EDGE ( 'NONE', *, *, #9, .T. ) ;
#57 = TOROIDAL_SURFACE ( 'NONE', #188, 2.250000000000000000, 0.6850000000000000533 ) ;
#58 = STYLED_ITEM ( 'NONE', ( #205 ), #195 ) ;
#59 = DIRECTION ( 'NONE',  ( 1.000000000000000000, 0.000000000000000000, 0.000000000000000000 ) ) ;
#60 = APPLICATION_CONTEXT ( 'automotive_design' ) ;
#61 = DIRECTION ( 'NONE',  ( -1.000000000000000000, 0.000000000000000000, -1.836970198721029688E-16 ) ) ;
#62 = EDGE_CURVE ( 'NONE', #94, #73, #153, .T. ) ;
#63 =( NAMED_UNIT ( * ) SI_UNIT ( $, .STERADIAN. ) SOLID_ANGLE_UNIT ( ) );
#64 = DIRECTION ( 'NONE',  ( -1.836970198721029688E-16, 0.000000000000000000, 1.000000000000000000 ) ) ;
#65 = CARTESIAN_POINT ( 'NONE',  ( -0.7500000000000002220, 0.000000000000000000, 0.000000000000000000 ) ) ;
#66 = CARTESIAN_POINT ( 'NONE',  ( 0.6850000000000000533, 0.000000000000000000, 0.000000000000000000 ) ) ;
#67 =( NAMED_UNIT ( * ) PLANE_ANGLE_UNIT ( ) SI_UNIT ( $, .RADIAN. ) );
#68 = AXIS2_PLACEMENT_3D ( 'NONE', #176, #159, #89 ) ;
#69 = LENGTH_MEASURE_WITH_UNIT ( LENGTH_MEASURE( 0.02539999999999999897 ), #174 );
#70 = EDGE_CURVE ( 'NONE', #194, #147, #54, .T. ) ;
#71 = AXIS2_PLACEMENT_3D ( 'NONE', #79, #149, #59 ) ;
#72 = SHAPE_DEFINITION_REPRESENTATION ( #192, #195 ) ;
#73 = VERTEX_POINT ( 'NONE', #183 ) ;
#74 = ORIENTED_EDGE ( 'NONE', *, *, #62, .T. ) ;
#75 = ORIENTED_EDGE ( 'NONE', *, *, #210, .T. ) ;
#76 = EDGE_CURVE ( 'NONE', #119, #94, #217, .T. ) ;
#77 = LENGTH_MEASURE_WITH_UNIT ( LENGTH_MEASURE( 0.02539999999999999897 ), #97 );
#78 = ORIENTED_EDGE ( 'NONE', *, *, #170, .T. ) ;
#79 = CARTESIAN_POINT ( 'NONE',  ( 0.000000000000000000, 0.000000000000000000, 0.000000000000000000 ) ) ;
#80 = DIRECTION ( 'NONE',  ( -0.000000000000000000, -1.000000000000000000, 0.000000000000000000 ) ) ;
#81 = PLANE ( 'NONE',  #46 ) ;
#82 = FILL_AREA_STYLE_COLOUR ( '', #19 ) ;
#83 = PRESENTATION_LAYER_ASSIGNMENT (  '', '', ( #113 ) ) ;
#84 = UNCERTAINTY_MEASURE_WITH_UNIT (LENGTH_MEASURE( 1.000000000000000082E-05 ), #219, 'distance_accuracy_value', 'NONE');
#85 = LENGTH_MEASURE_WITH_UNIT ( LENGTH_MEASURE( 0.02539999999999999897 ), #168 );
#86 = PRODUCT_DEFINITION ( 'UNKNOWN', '', #37, #31 ) ;
#87 = CARTESIAN_POINT ( 'NONE',  ( 2.250000000000000000, 0.000000000000000000, 0.000000000000000000 ) ) ;
#88 = DIRECTION ( 'NONE',  ( 0.000000000000000000, 0.000000000000000000, -1.000000000000000000 ) ) ;
#89 = DIRECTION ( 'NONE',  ( 0.000000000000000000, 0.000000000000000000, -1.000000000000000000 ) ) ;
#90 = DIRECTION ( 'NONE',  ( 0.000000000000000000, 0.000000000000000000, 1.000000000000000000 ) ) ;
#91 = DIRECTION ( 'NONE',  ( -0.000000000000000000, -1.000000000000000000, 0.000000000000000000 ) ) ;
#92 = AXIS2_PLACEMENT_3D ( 'NONE', #30, #101, #47 ) ;
#93 = AXIS2_PLACEMENT_3D ( 'NONE', #87, #17, #226 ) ;
#94 = VERTEX_POINT ( 'NONE', #201 ) ;
#95 = ADVANCED_FACE ( 'NONE', ( #102 ), #21, .T. ) ;
#96 = EDGE_LOOP ( 'NONE', ( #136, #148, #74, #98 ) ) ;
#97 =( LENGTH_UNIT ( ) NAMED_UNIT ( * ) SI_UNIT ( $, .METRE. ) );
#98 = ORIENTED_EDGE ( 'NONE', *, *, #157, .T. ) ;
#99 = AXIS2_PLACEMENT_3D ( 'NONE', #222, #61, #64 ) ;
#100 = ORIENTED_EDGE ( 'NONE', *, *, #70, .T. ) ;
#101 = DIRECTION ( 'NONE',  ( -0.000000000000000000, -0.000000000000000000, -1.000000000000000000 ) ) ;
#102 = FACE_OUTER_BOUND ( 'NONE', #26, .T. ) ;
#103 = ADVANCED_FACE ( 'NONE', ( #150, #104 ), #81, .T. ) ;
#104 = FACE_OUTER_BOUND ( 'NONE', #216, .T. ) ;
#105 = DIRECTION ( 'NONE',  ( 1.000000000000000000, 0.000000000000000000, 0.000000000000000000 ) ) ;
#106 = SURFACE_STYLE_USAGE ( .BOTH. , #167 ) ;
#107 = CARTESIAN_POINT ( 'NONE',  ( 2.250000000000000444, 0.000000000000000000, -2.250000000000000000 ) ) ;
#108 = DIRECTION ( 'NONE',  ( -3.642463991552349972E-16, 0.000000000000000000, 1.000000000000000000 ) ) ;
#109 = CARTESIAN_POINT ( 'NONE',  ( 2.250000000000000000, 0.000000000000000000, 0.000000000000000000 ) ) ;
#110 = DIRECTION ( 'NONE',  ( -0.000000000000000000, -1.000000000000000000, 0.000000000000000000 ) ) ;
#111 = FILL_AREA_STYLE ('',( #190 ) ) ;
#112 = DIMENSIONAL_EXPONENTS ( 1.000000000000000000, 0.000000000000000000, 0.000000000000000000, 0.000000000000000000, 0.000000000000000000, 0.000000000000000000, 0.000000000000000000 ) ;
#113 = STYLED_ITEM ( 'NONE', ( #138 ), #13 ) ;
#114 = PRODUCT ( '403502', '403502', '', ( #24 ) ) ;
#115 = DIMENSIONAL_EXPONENTS ( 1.000000000000000000, 0.000000000000000000, 0.000000000000000000, 0.000000000000000000, 0.000000000000000000, 0.000000000000000000, 0.000000000000000000 ) ;
#116 = ORIENTED_EDGE ( 'NONE', *, *, #40, .F. ) ;
#117 = ORIENTED_EDGE ( 'NONE', *, *, #210, .F. ) ;
#118 = ADVANCED_FACE ( 'NONE', ( #131 ), #42, .F. ) ;
#119 = VERTEX_POINT ( 'NONE', #65 ) ;
#120 = CIRCLE ( 'NONE', #128, 0.6850000000000000533 ) ;
#121 = AXIS2_PLACEMENT_3D ( 'NONE', #109, #158, #36 ) ;
#122 = ORIENTED_EDGE ( 'NONE', *, *, #157, .F. ) ;
#123 = EDGE_CURVE ( 'NONE', #119, #211, #52, .T. ) ;
#124 = CARTESIAN_POINT ( 'NONE',  ( 0.000000000000000000, 0.000000000000000000, 0.000000000000000000 ) ) ;
#125 = UNCERTAINTY_MEASURE_WITH_UNIT (LENGTH_MEASURE( 1.000000000000000082E-05 ), #225, 'distance_accuracy_value', 'NONE');
#126 = EDGE_LOOP ( 'NONE', ( #43, #22, #75, #163 ) ) ;
#127 = FILL_AREA_STYLE ('',( #82 ) ) ;
#128 = AXIS2_PLACEMENT_3D ( 'NONE', #204, #29, #105 ) ;
#129 = MECHANICAL_DESIGN_GEOMETRIC_PRESENTATION_REPRESENTATION (  '', ( #58 ), #144 ) ;
#130 = DIRECTION ( 'NONE',  ( 0.000000000000000000, 0.000000000000000000, 1.000000000000000000 ) ) ;
#131 = FACE_OUTER_BOUND ( 'NONE', #126, .T. ) ;
#132 = CIRCLE ( 'NONE', #23, 0.7500000000000002220 ) ;
#133 = DIRECTION ( 'NONE',  ( 1.000000000000000000, -0.000000000000000000, 1.836970198721029688E-16 ) ) ;
#134 = ORIENTED_EDGE ( 'NONE', *, *, #62, .F. ) ;
#135 =( CONVERSION_BASED_UNIT ( 'INCH', #77 ) LENGTH_UNIT ( ) NAMED_UNIT ( #164 ) );
#136 = ORIENTED_EDGE ( 'NONE', *, *, #123, .F. ) ;
#137 = VERTEX_POINT ( 'NONE', #14 ) ;
#138 = PRESENTATION_STYLE_ASSIGNMENT (( #106 ) ) ;
#139 = FACE_OUTER_BOUND ( 'NONE', #181, .T. ) ;
#140 = UNCERTAINTY_MEASURE_WITH_UNIT (LENGTH_MEASURE( 1.000000000000000082E-05 ), #135, 'distance_accuracy_value', 'NONE');
#141 = DIRECTION ( 'NONE',  ( -0.000000000000000000, -1.000000000000000000, 0.000000000000000000 ) ) ;
#142 = CLOSED_SHELL ( 'NONE', ( #118, #95, #20, #35, #103, #185 ) ) ;
#143 = SURFACE_STYLE_USAGE ( .BOTH. , #16 ) ;
#144 =( GEOMETRIC_REPRESENTATION_CONTEXT ( 3 ) GLOBAL_UNCERTAINTY_ASSIGNED_CONTEXT ( ( #140 ) ) GLOBAL_UNIT_ASSIGNED_CONTEXT ( ( #135, #215, #160 ) ) REPRESENTATION_CONTEXT ( 'NONE', 'WORKASPACE' ) );
#145 = MECHANICAL_DESIGN_GEOMETRIC_PRESENTATION_REPRESENTATION (  '', ( #113 ), #175 ) ;
#146 = ORIENTED_EDGE ( 'NONE', *, *, #76, .F. ) ;
#147 = VERTEX_POINT ( 'NONE', #33 ) ;
#148 = ORIENTED_EDGE ( 'NONE', *, *, #9, .F. ) ;
#149 = DIRECTION ( 'NONE',  ( 0.000000000000000000, 0.000000000000000000, 1.000000000000000000 ) ) ;
#150 = FACE_BOUND ( 'NONE', #39, .T. ) ;
#151 = AXIS2_PLACEMENT_3D ( 'NONE', #51, #110, #191 ) ;
#152 = DIRECTION ( 'NONE',  ( 0.000000000000000000, 0.000000000000000000, 1.000000000000000000 ) ) ;
#153 = CIRCLE ( 'NONE', #180, 1.499999999999999778 ) ;
#154 = CIRCLE ( 'NONE', #214, 0.6850000000000001643 ) ;
#155 = DIRECTION ( 'NONE',  ( 1.000000000000000000, 0.000000000000000000, 0.000000000000000000 ) ) ;
#156 = DIRECTION ( 'NONE',  ( 1.000000000000000000, 0.000000000000000000, -0.000000000000000000 ) ) ;
#157 = EDGE_CURVE ( 'NONE', #73, #211, #132, .T. ) ;
#158 = DIRECTION ( 'NONE',  ( -0.000000000000000000, -1.000000000000000000, 0.000000000000000000 ) ) ;
#159 = DIRECTION ( 'NONE',  ( -0.000000000000000000, -1.000000000000000000, 0.000000000000000000 ) ) ;
#160 =( NAMED_UNIT ( * ) SI_UNIT ( $, .STERADIAN. ) SOLID_ANGLE_UNIT ( ) );
#161 = COLOUR_RGB ( '',0.6470588235294117974, 0.6196078431372549211, 0.5882352941176470784 ) ;
#162 = PRESENTATION_LAYER_ASSIGNMENT (  '', '', ( #58 ) ) ;
#163 = ORIENTED_EDGE ( 'NONE', *, *, #170, .F. ) ;
#164 = DIMENSIONAL_EXPONENTS ( 1.000000000000000000, 0.000000000000000000, 0.000000000000000000, 0.000000000000000000, 0.000000000000000000, 0.000000000000000000, 0.000000000000000000 ) ;
#165 = ORIENTED_EDGE ( 'NONE', *, *, #70, .F. ) ;
#166 = CARTESIAN_POINT ( 'NONE',  ( 2.250000000000000444, 0.000000000000000000, -2.250000000000000000 ) ) ;
#167 = SURFACE_SIDE_STYLE ('',( #221 ) ) ;
#168 =( LENGTH_UNIT ( ) NAMED_UNIT ( * ) SI_UNIT ( $, .METRE. ) );
#169 = CIRCLE ( 'NONE', #68, 1.564999999999999725 ) ;
#170 = EDGE_CURVE ( 'NONE', #213, #194, #169, .T. ) ;
#171 = DIRECTION ( 'NONE',  ( 0.000000000000000000, 0.000000000000000000, 1.000000000000000000 ) ) ;
#172 = AXIS2_PLACEMENT_3D ( 'NONE', #166, #48, #152 ) ;
#173 = DIRECTION ( 'NONE',  ( -1.000000000000000000, 0.000000000000000000, -1.836970198721029688E-16 ) ) ;
#174 =( LENGTH_UNIT ( ) NAMED_UNIT ( * ) SI_UNIT ( $, .METRE. ) );
#175 =( GEOMETRIC_REPRESENTATION_CONTEXT ( 3 ) GLOBAL_UNCERTAINTY_ASSIGNED_CONTEXT ( ( #84 ) ) GLOBAL_UNIT_ASSIGNED_CONTEXT ( ( #219, #27, #63 ) ) REPRESENTATION_CONTEXT ( 'NONE', 'WORKASPACE' ) );
#176 = CARTESIAN_POINT ( 'NONE',  ( 2.250000000000000000, 8.388830574159370615E-17, 0.000000000000000000 ) ) ;
#177 = CARTESIAN_POINT ( 'NONE',  ( 2.250000000000000444, 0.000000000000000000, -2.250000000000000000 ) ) ;
#178 = EDGE_CURVE ( 'NONE', #211, #73, #227, .T. ) ;
#179 = AXIS2_PLACEMENT_3D ( 'NONE', #10, #171, #155 ) ;
#180 = AXIS2_PLACEMENT_3D ( 'NONE', #28, #141, #50 ) ;
#181 = EDGE_LOOP ( 'NONE', ( #55, #116, #78, #100 ) ) ;
#182 = EDGE_LOOP ( 'NONE', ( #165, #117 ) ) ;
#183 = CARTESIAN_POINT ( 'NONE',  ( 2.250000000000000444, 0.000000000000000000, -1.499999999999999778 ) ) ;
#184 = DIRECTION ( 'NONE',  ( -0.000000000000000000, -1.000000000000000000, 0.000000000000000000 ) ) ;
#185 = ADVANCED_FACE ( 'NONE', ( #224 ), #197, .T. ) ;
#186 = FACE_BOUND ( 'NONE', #182, .T. ) ;
#187 =( NAMED_UNIT ( * ) SI_UNIT ( $, .STERADIAN. ) SOLID_ANGLE_UNIT ( ) );
#188 = AXIS2_PLACEMENT_3D ( 'NONE', #8, #80, #218 ) ;
#189 = CIRCLE ( 'NONE', #93, 2.935000000000000053 ) ;
#190 = FILL_AREA_STYLE_COLOUR ( '', #161 ) ;
#191 = DIRECTION ( 'NONE',  ( 0.000000000000000000, 0.000000000000000000, -1.000000000000000000 ) ) ;
#192 = PRODUCT_DEFINITION_SHAPE ( 'NONE', 'NONE',  #86 ) ;
#193 = CARTESIAN_POINT ( 'NONE',  ( 2.250000000000000000, 0.000000000000000000, 0.000000000000000000 ) ) ;
#194 = VERTEX_POINT ( 'NONE', #53 ) ;
#195 = ADVANCED_BREP_SHAPE_REPRESENTATION ( '403502', ( #13, #15 ), #34 ) ;
#196 = ORIENTED_EDGE ( 'NONE', *, *, #25, .T. ) ;
#197 = TOROIDAL_SURFACE ( 'NONE', #121, 2.250000000000000000, 0.7500000000000001110 ) ;
#198 = ORIENTED_EDGE ( 'NONE', *, *, #178, .F. ) ;
#199 = AXIS2_PLACEMENT_3D ( 'NONE', #45, #184, #11 ) ;
#200 = ORIENTED_EDGE ( 'NONE', *, *, #40, .T. ) ;
#201 = CARTESIAN_POINT ( 'NONE',  ( 0.7500000000000001110, 0.000000000000000000, 0.000000000000000000 ) ) ;
#202 = PLANE ( 'NONE',  #99 ) ;
#203 = CIRCLE ( 'NONE', #92, 0.6850000000000000533 ) ;
#204 = CARTESIAN_POINT ( 'NONE',  ( 0.000000000000000000, 0.000000000000000000, 0.000000000000000000 ) ) ;
#205 = PRESENTATION_STYLE_ASSIGNMENT (( #143 ) ) ;
#206 = CARTESIAN_POINT ( 'NONE',  ( 2.250000000000000444, 0.000000000000000000, -2.250000000000000000 ) ) ;
#207 = EDGE_CURVE ( 'NONE', #137, #147, #189, .T. ) ;
#208 = DIRECTION ( 'NONE',  ( -1.000000000000000000, 0.000000000000000000, -1.836970198721029688E-16 ) ) ;
#209 = APPLICATION_PROTOCOL_DEFINITION ( 'draft international standard', 'automotive_design', 1998, #60 ) ;
#210 = EDGE_CURVE ( 'NONE', #147, #194, #154, .T. ) ;
#211 = VERTEX_POINT ( 'NONE', #1 ) ;
#212 = APPLICATION_CONTEXT ( 'automotive_design' ) ;
#213 = VERTEX_POINT ( 'NONE', #66 ) ;
#214 = AXIS2_PLACEMENT_3D ( 'NONE', #177, #133, #90 ) ;
#215 =( NAMED_UNIT ( * ) PLANE_ANGLE_UNIT ( ) SI_UNIT ( $, .RADIAN. ) );
#216 = EDGE_LOOP ( 'NONE', ( #56, #6 ) ) ;
#217 = CIRCLE ( 'NONE', #71, 0.7500000000000001110 ) ;
#218 = DIRECTION ( 'NONE',  ( 0.000000000000000000, 0.000000000000000000, -1.000000000000000000 ) ) ;
#219 =( CONVERSION_BASED_UNIT ( 'INCH', #85 ) LENGTH_UNIT ( ) NAMED_UNIT ( #112 ) );
#220 = AXIS2_PLACEMENT_3D ( 'NONE', #193, #91, #88 ) ;
#221 = SURFACE_STYLE_FILL_AREA ( #127 ) ;
#222 = CARTESIAN_POINT ( 'NONE',  ( 2.250000000000000444, 0.000000000000000000, -2.250000000000000000 ) ) ;
#223 = DIRECTION ( 'NONE',  ( -3.642463991552349972E-16, 0.000000000000000000, 1.000000000000000000 ) ) ;
#224 = FACE_OUTER_BOUND ( 'NONE', #96, .T. ) ;
#225 =( CONVERSION_BASED_UNIT ( 'INCH', #69 ) LENGTH_UNIT ( ) NAMED_UNIT ( #115 ) );
#226 = DIRECTION ( 'NONE',  ( 0.000000000000000000, 0.000000000000000000, -1.000000000000000000 ) ) ;
#227 = CIRCLE ( 'NONE', #12, 0.7500000000000002220 ) ;
ENDSEC;
END-ISO-10303-21;
