ISO-10303-21;
HEADER;
FILE_DESCRIPTION (( 'STEP AP214' ),
    '1' );
FILE_NAME ('403503.STEP',
    '2024-01-13T08:31:01',
    ( '' ),
    ( '' ),
    'SwSTEP 2.0',
    'SolidWorks 2022',
    '' );
FILE_SCHEMA (( 'AUTOMOTIVE_DESIGN' ));
ENDSEC;

DATA;
#1 = APPLICATION_PROTOCOL_DEFINITION ( 'draft international standard', 'automotive_design', 1998, #154 ) ;
#2 = VERTEX_POINT ( 'NONE', #21 ) ;
#3 = CIRCLE ( 'NONE', #37, 1.000000000000000000 ) ;
#4 = ORIENTED_EDGE ( 'NONE', *, *, #184, .F. ) ;
#5 = EDGE_LOOP ( 'NONE', ( #162, #146 ) ) ;
#6 = ADVANCED_FACE ( 'NONE', ( #116 ), #159, .T. ) ;
#7 = DIRECTION ( 'NONE',  ( -1.000000000000000000, 0.000000000000000000, -1.836970198721029934E-16 ) ) ;
#8 = PRODUCT_DEFINITION_FORMATION_WITH_SPECIFIED_SOURCE ( 'ANY', '', #174, .NOT_KNOWN. ) ;
#9 = FILL_AREA_STYLE ('',( #171 ) ) ;
#10 = CARTESIAN_POINT ( 'NONE',  ( 3.000000000000000444, 0.000000000000000000, 0.000000000000000000 ) ) ;
#11 = CARTESIAN_POINT ( 'NONE',  ( 3.000000000000000444, 0.000000000000000000, 0.000000000000000000 ) ) ;
#12 = DIRECTION ( 'NONE',  ( 0.000000000000000000, 0.000000000000000000, -1.000000000000000000 ) ) ;
#13 = DIRECTION ( 'NONE',  ( 1.000000000000000000, 0.000000000000000000, 0.000000000000000000 ) ) ;
#14 = PRESENTATION_LAYER_ASSIGNMENT (  '', '', ( #201 ) ) ;
#15 = UNCERTAINTY_MEASURE_WITH_UNIT (LENGTH_MEASURE( 1.000000000000000082E-05 ), #213, 'distance_accuracy_value', 'NONE');
#16 = ADVANCED_FACE ( 'NONE', ( #60 ), #205, .T. ) ;
#17 = EDGE_LOOP ( 'NONE', ( #214, #98 ) ) ;
#18 = AXIS2_PLACEMENT_3D ( 'NONE', #192, #138, #220 ) ;
#19 = SHAPE_DEFINITION_REPRESENTATION ( #107, #43 ) ;
#20 = VERTEX_POINT ( 'NONE', #124 ) ;
#21 = CARTESIAN_POINT ( 'NONE',  ( -0.9999999999999998890, 0.000000000000000000, 0.000000000000000000 ) ) ;
#22 = VERTEX_POINT ( 'NONE', #168 ) ;
#23 =( GEOMETRIC_REPRESENTATION_CONTEXT ( 3 ) GLOBAL_UNCERTAINTY_ASSIGNED_CONTEXT ( ( #196 ) ) GLOBAL_UNIT_ASSIGNED_CONTEXT ( ( #32, #36, #111 ) ) REPRESENTATION_CONTEXT ( 'NONE', 'WORKASPACE' ) );
#24 = VERTEX_POINT ( 'NONE', #204 ) ;
#25 = DIRECTION ( 'NONE',  ( 1.000000000000000000, 0.000000000000000000, 0.000000000000000000 ) ) ;
#26 = FACE_OUTER_BOUND ( 'NONE', #149, .T. ) ;
#27 = AXIS2_PLACEMENT_3D ( 'NONE', #74, #187, #82 ) ;
#28 = CARTESIAN_POINT ( 'NONE',  ( 3.000000000000000444, 0.000000000000000000, 0.000000000000000000 ) ) ;
#29 = CARTESIAN_POINT ( 'NONE',  ( 1.000000000000000000, 0.000000000000000000, 0.000000000000000000 ) ) ;
#30 = DIRECTION ( 'NONE',  ( -0.000000000000000000, -0.000000000000000000, -1.000000000000000000 ) ) ;
#31 = AXIS2_PLACEMENT_3D ( 'NONE', #225, #222, #25 ) ;
#32 =( CONVERSION_BASED_UNIT ( 'INCH', #91 ) LENGTH_UNIT ( ) NAMED_UNIT ( #78 ) );
#33 = EDGE_CURVE ( 'NONE', #183, #22, #153, .T. ) ;
#34 = APPLICATION_PROTOCOL_DEFINITION ( 'draft international standard', 'automotive_design', 1998, #125 ) ;
#35 = SURFACE_STYLE_FILL_AREA ( #195 ) ;
#36 =( NAMED_UNIT ( * ) PLANE_ANGLE_UNIT ( ) SI_UNIT ( $, .RADIAN. ) );
#37 = AXIS2_PLACEMENT_3D ( 'NONE', #189, #7, #81 ) ;
#38 = ADVANCED_FACE ( 'NONE', ( #49 ), #145, .F. ) ;
#39 = DIRECTION ( 'NONE',  ( 1.000000000000000000, -0.000000000000000000, 1.836970198721029934E-16 ) ) ;
#40 = EDGE_LOOP ( 'NONE', ( #112, #94, #115, #217 ) ) ;
#41 = CARTESIAN_POINT ( 'NONE',  ( 0.000000000000000000, 0.000000000000000000, 0.000000000000000000 ) ) ;
#42 = ORIENTED_EDGE ( 'NONE', *, *, #215, .T. ) ;
#43 = ADVANCED_BREP_SHAPE_REPRESENTATION ( '403503', ( #185, #113 ), #133 ) ;
#44 = ORIENTED_EDGE ( 'NONE', *, *, #184, .T. ) ;
#45 = ADVANCED_FACE ( 'NONE', ( #26 ), #186, .F. ) ;
#46 = DIRECTION ( 'NONE',  ( -0.000000000000000000, -1.000000000000000000, 0.000000000000000000 ) ) ;
#47 = CARTESIAN_POINT ( 'NONE',  ( 3.000000000000000888, 0.000000000000000000, -4.000000000000000000 ) ) ;
#48 = CIRCLE ( 'NONE', #194, 1.000000000000000000 ) ;
#49 = FACE_OUTER_BOUND ( 'NONE', #165, .T. ) ;
#50 = DIRECTION ( 'NONE',  ( -1.000000000000000000, 0.000000000000000000, -1.836970198721029934E-16 ) ) ;
#51 = MECHANICAL_DESIGN_GEOMETRIC_PRESENTATION_REPRESENTATION (  '', ( #126 ), #210 ) ;
#52 = AXIS2_PLACEMENT_3D ( 'NONE', #11, #46, #156 ) ;
#53 = DIRECTION ( 'NONE',  ( 0.000000000000000000, 0.000000000000000000, 1.000000000000000000 ) ) ;
#54 = AXIS2_PLACEMENT_3D ( 'NONE', #64, #136, #85 ) ;
#55 = ORIENTED_EDGE ( 'NONE', *, *, #119, .T. ) ;
#56 = VERTEX_POINT ( 'NONE', #29 ) ;
#57 = ADVANCED_FACE ( 'NONE', ( #103, #170 ), #84, .T. ) ;
#58 = DIMENSIONAL_EXPONENTS ( 1.000000000000000000, 0.000000000000000000, 0.000000000000000000, 0.000000000000000000, 0.000000000000000000, 0.000000000000000000, 0.000000000000000000 ) ;
#59 = AXIS2_PLACEMENT_3D ( 'NONE', #63, #50, #203 ) ;
#60 = FACE_OUTER_BOUND ( 'NONE', #40, .T. ) ;
#61 = DIRECTION ( 'NONE',  ( -0.000000000000000000, -1.000000000000000000, 0.000000000000000000 ) ) ;
#62 = AXIS2_PLACEMENT_3D ( 'NONE', #69, #142, #175 ) ;
#63 = CARTESIAN_POINT ( 'NONE',  ( 3.000000000000000888, 0.000000000000000000, -3.000000000000000444 ) ) ;
#64 = CARTESIAN_POINT ( 'NONE',  ( 3.000000000000000444, 0.000000000000000000, 0.000000000000000000 ) ) ;
#65 = CARTESIAN_POINT ( 'NONE',  ( 0.000000000000000000, 0.000000000000000000, 0.000000000000000000 ) ) ;
#66 = AXIS2_PLACEMENT_3D ( 'NONE', #197, #39, #160 ) ;
#67 = DIRECTION ( 'NONE',  ( -0.000000000000000000, -1.000000000000000000, 0.000000000000000000 ) ) ;
#68 = DIRECTION ( 'NONE',  ( -0.000000000000000000, -1.000000000000000000, 0.000000000000000000 ) ) ;
#69 = CARTESIAN_POINT ( 'NONE',  ( 3.000000000000000888, 0.000000000000000000, -3.000000000000000444 ) ) ;
#70 = CARTESIAN_POINT ( 'NONE',  ( 3.000000000000000444, 1.145044757202775302E-16, 0.000000000000000000 ) ) ;
#71 = UNCERTAINTY_MEASURE_WITH_UNIT (LENGTH_MEASURE( 1.000000000000000082E-05 ), #128, 'distance_accuracy_value', 'NONE');
#72 = AXIS2_PLACEMENT_3D ( 'NONE', #101, #67, #140 ) ;
#73 = PRODUCT_CONTEXT ( 'NONE', #125, 'mechanical' ) ;
#74 = CARTESIAN_POINT ( 'NONE',  ( 3.000000000000000444, 0.000000000000000000, 0.000000000000000000 ) ) ;
#75 = EDGE_CURVE ( 'NONE', #2, #56, #117, .T. ) ;
#76 = EDGE_LOOP ( 'NONE', ( #182, #44 ) ) ;
#77 = EDGE_LOOP ( 'NONE', ( #167, #148 ) ) ;
#78 = DIMENSIONAL_EXPONENTS ( 1.000000000000000000, 0.000000000000000000, 0.000000000000000000, 0.000000000000000000, 0.000000000000000000, 0.000000000000000000, 0.000000000000000000 ) ;
#79 = EDGE_CURVE ( 'NONE', #56, #24, #139, .T. ) ;
#80 = ORIENTED_EDGE ( 'NONE', *, *, #215, .F. ) ;
#81 = DIRECTION ( 'NONE',  ( 0.000000000000000000, 0.000000000000000000, 1.000000000000000000 ) ) ;
#82 = DIRECTION ( 'NONE',  ( 0.000000000000000000, 0.000000000000000000, -1.000000000000000000 ) ) ;
#83 = CARTESIAN_POINT ( 'NONE',  ( 0.000000000000000000, 0.000000000000000000, 0.000000000000000000 ) ) ;
#84 = PLANE ( 'NONE',  #86 ) ;
#85 = DIRECTION ( 'NONE',  ( 0.000000000000000000, 0.000000000000000000, -1.000000000000000000 ) ) ;
#86 = AXIS2_PLACEMENT_3D ( 'NONE', #83, #118, #155 ) ;
#87 = SURFACE_SIDE_STYLE ('',( #35 ) ) ;
#88 =( NAMED_UNIT ( * ) SI_UNIT ( $, .STERADIAN. ) SOLID_ANGLE_UNIT ( ) );
#89 = AXIS2_PLACEMENT_3D ( 'NONE', #65, #30, #104 ) ;
#90 =( LENGTH_UNIT ( ) NAMED_UNIT ( * ) SI_UNIT ( $, .METRE. ) );
#91 = LENGTH_MEASURE_WITH_UNIT ( LENGTH_MEASURE( 0.02539999999999999897 ), #90 );
#92 = DIRECTION ( 'NONE',  ( 0.000000000000000000, 0.000000000000000000, 1.000000000000000000 ) ) ;
#93 = AXIS2_PLACEMENT_3D ( 'NONE', #28, #188, #120 ) ;
#94 = ORIENTED_EDGE ( 'NONE', *, *, #208, .F. ) ;
#95 = ORIENTED_EDGE ( 'NONE', *, *, #79, .F. ) ;
#96 = VERTEX_POINT ( 'NONE', #152 ) ;
#97 = DIMENSIONAL_EXPONENTS ( 1.000000000000000000, 0.000000000000000000, 0.000000000000000000, 0.000000000000000000, 0.000000000000000000, 0.000000000000000000, 0.000000000000000000 ) ;
#98 = ORIENTED_EDGE ( 'NONE', *, *, #75, .T. ) ;
#99 = AXIS2_PLACEMENT_3D ( 'NONE', #100, #206, #123 ) ;
#100 = CARTESIAN_POINT ( 'NONE',  ( 0.000000000000000000, 0.000000000000000000, 0.000000000000000000 ) ) ;
#101 = CARTESIAN_POINT ( 'NONE',  ( 3.000000000000000444, 1.224646799147353207E-16, 0.000000000000000000 ) ) ;
#102 = DIRECTION ( 'NONE',  ( 0.000000000000000000, 0.000000000000000000, -1.000000000000000000 ) ) ;
#103 = FACE_BOUND ( 'NONE', #76, .T. ) ;
#104 = DIRECTION ( 'NONE',  ( 1.000000000000000000, 0.000000000000000000, 0.000000000000000000 ) ) ;
#105 = FACE_BOUND ( 'NONE', #77, .T. ) ;
#106 = FILL_AREA_STYLE_COLOUR ( '', #219 ) ;
#107 = PRODUCT_DEFINITION_SHAPE ( 'NONE', 'NONE',  #144 ) ;
#108 = SURFACE_STYLE_USAGE ( .BOTH. , #87 ) ;
#109 = PRODUCT_RELATED_PRODUCT_CATEGORY ( 'part', '', ( #174 ) ) ;
#110 = CIRCLE ( 'NONE', #18, 0.9350000000000002753 ) ;
#111 =( NAMED_UNIT ( * ) SI_UNIT ( $, .STERADIAN. ) SOLID_ANGLE_UNIT ( ) );
#112 = ORIENTED_EDGE ( 'NONE', *, *, #119, .F. ) ;
#113 = AXIS2_PLACEMENT_3D ( 'NONE', #41, #92, #179 ) ;
#114 = ORIENTED_EDGE ( 'NONE', *, *, #75, .F. ) ;
#115 = ORIENTED_EDGE ( 'NONE', *, *, #79, .T. ) ;
#116 = FACE_OUTER_BOUND ( 'NONE', #181, .T. ) ;
#117 = CIRCLE ( 'NONE', #31, 1.000000000000000000 ) ;
#118 = DIRECTION ( 'NONE',  ( 0.000000000000000000, 0.000000000000000000, 1.000000000000000000 ) ) ;
#119 = EDGE_CURVE ( 'NONE', #2, #178, #161, .T. ) ;
#120 = DIRECTION ( 'NONE',  ( 0.000000000000000000, 0.000000000000000000, -1.000000000000000000 ) ) ;
#121 = SURFACE_STYLE_FILL_AREA ( #9 ) ;
#122 = CIRCLE ( 'NONE', #147, 2.064999999999999947 ) ;
#123 = DIRECTION ( 'NONE',  ( 1.000000000000000000, 0.000000000000000000, 0.000000000000000000 ) ) ;
#124 = CARTESIAN_POINT ( 'NONE',  ( 3.000000000000000888, 0.000000000000000000, -2.064999999999999947 ) ) ;
#125 = APPLICATION_CONTEXT ( 'automotive_design' ) ;
#126 = STYLED_ITEM ( 'NONE', ( #226 ), #43 ) ;
#127 = AXIS2_PLACEMENT_3D ( 'NONE', #10, #61, #102 ) ;
#128 =( CONVERSION_BASED_UNIT ( 'INCH', #212 ) LENGTH_UNIT ( ) NAMED_UNIT ( #97 ) );
#129 = CARTESIAN_POINT ( 'NONE',  ( 0.000000000000000000, 0.000000000000000000, 0.000000000000000000 ) ) ;
#130 = ORIENTED_EDGE ( 'NONE', *, *, #141, .F. ) ;
#131 = ORIENTED_EDGE ( 'NONE', *, *, #33, .T. ) ;
#132 = ORIENTED_EDGE ( 'NONE', *, *, #223, .T. ) ;
#133 =( GEOMETRIC_REPRESENTATION_CONTEXT ( 3 ) GLOBAL_UNCERTAINTY_ASSIGNED_CONTEXT ( ( #71 ) ) GLOBAL_UNIT_ASSIGNED_CONTEXT ( ( #128, #158, #88 ) ) REPRESENTATION_CONTEXT ( 'NONE', 'WORKASPACE' ) );
#134 = CIRCLE ( 'NONE', #59, 1.000000000000000000 ) ;
#135 = EDGE_CURVE ( 'NONE', #178, #24, #3, .T. ) ;
#136 = DIRECTION ( 'NONE',  ( -0.000000000000000000, -1.000000000000000000, 0.000000000000000000 ) ) ;
#137 = DIRECTION ( 'NONE',  ( -0.000000000000000000, -1.000000000000000000, 0.000000000000000000 ) ) ;
#138 = DIRECTION ( 'NONE',  ( 1.000000000000000000, -0.000000000000000000, 1.836970198721029934E-16 ) ) ;
#139 = CIRCLE ( 'NONE', #72, 2.000000000000000444 ) ;
#140 = DIRECTION ( 'NONE',  ( 0.000000000000000000, 0.000000000000000000, -1.000000000000000000 ) ) ;
#141 = EDGE_CURVE ( 'NONE', #96, #183, #216, .T. ) ;
#142 = DIRECTION ( 'NONE',  ( -1.000000000000000000, 0.000000000000000000, -1.836970198721030181E-16 ) ) ;
#143 = LENGTH_MEASURE_WITH_UNIT ( LENGTH_MEASURE( 0.02539999999999999897 ), #209 );
#144 = PRODUCT_DEFINITION ( 'UNKNOWN', '', #8, #202 ) ;
#145 = TOROIDAL_SURFACE ( 'NONE', #54, 3.000000000000000444, 0.9350000000000001643 ) ;
#146 = ORIENTED_EDGE ( 'NONE', *, *, #135, .F. ) ;
#147 = AXIS2_PLACEMENT_3D ( 'NONE', #70, #68, #12 ) ;
#148 = ORIENTED_EDGE ( 'NONE', *, *, #164, .F. ) ;
#149 = EDGE_LOOP ( 'NONE', ( #4, #131, #198, #80 ) ) ;
#150 = SURFACE_SIDE_STYLE ('',( #121 ) ) ;
#151 = PRESENTATION_LAYER_ASSIGNMENT (  '', '', ( #126 ) ) ;
#152 = CARTESIAN_POINT ( 'NONE',  ( 0.9350000000000001643, 0.000000000000000000, 0.000000000000000000 ) ) ;
#153 = CIRCLE ( 'NONE', #52, 3.935000000000000497 ) ;
#154 = APPLICATION_CONTEXT ( 'automotive_design' ) ;
#155 = DIRECTION ( 'NONE',  ( 1.000000000000000000, 0.000000000000000000, -0.000000000000000000 ) ) ;
#156 = DIRECTION ( 'NONE',  ( 0.000000000000000000, 0.000000000000000000, -1.000000000000000000 ) ) ;
#157 = MECHANICAL_DESIGN_GEOMETRIC_PRESENTATION_REPRESENTATION (  '', ( #201 ), #23 ) ;
#158 =( NAMED_UNIT ( * ) PLANE_ANGLE_UNIT ( ) SI_UNIT ( $, .RADIAN. ) );
#159 = TOROIDAL_SURFACE ( 'NONE', #27, 3.000000000000000444, 1.000000000000000000 ) ;
#160 = DIRECTION ( 'NONE',  ( 0.000000000000000000, 0.000000000000000000, 1.000000000000000000 ) ) ;
#161 = CIRCLE ( 'NONE', #224, 4.000000000000000000 ) ;
#162 = ORIENTED_EDGE ( 'NONE', *, *, #180, .F. ) ;
#163 = ORIENTED_EDGE ( 'NONE', *, *, #135, .T. ) ;
#164 = EDGE_CURVE ( 'NONE', #22, #20, #110, .T. ) ;
#165 = EDGE_LOOP ( 'NONE', ( #200, #130, #42, #132 ) ) ;
#166 = COLOUR_RGB ( '',0.6470588235294117974, 0.6196078431372549211, 0.5882352941176470784 ) ;
#167 = ORIENTED_EDGE ( 'NONE', *, *, #223, .F. ) ;
#168 = CARTESIAN_POINT ( 'NONE',  ( 3.000000000000000888, 0.000000000000000000, -3.935000000000000497 ) ) ;
#169 = PLANE ( 'NONE',  #62 ) ;
#170 = FACE_OUTER_BOUND ( 'NONE', #17, .T. ) ;
#171 = FILL_AREA_STYLE_COLOUR ( '', #166 ) ;
#172 = CLOSED_SHELL ( 'NONE', ( #45, #6, #38, #199, #57, #16 ) ) ;
#173 = FACE_OUTER_BOUND ( 'NONE', #5, .T. ) ;
#174 = PRODUCT ( '403503', '403503', '', ( #73 ) ) ;
#175 = DIRECTION ( 'NONE',  ( -1.836970198721030181E-16, 0.000000000000000000, 1.000000000000000000 ) ) ;
#176 = CIRCLE ( 'NONE', #66, 0.9350000000000002753 ) ;
#177 =( NAMED_UNIT ( * ) SI_UNIT ( $, .STERADIAN. ) SOLID_ANGLE_UNIT ( ) );
#178 = VERTEX_POINT ( 'NONE', #47 ) ;
#179 = DIRECTION ( 'NONE',  ( 1.000000000000000000, 0.000000000000000000, 0.000000000000000000 ) ) ;
#180 = EDGE_CURVE ( 'NONE', #24, #178, #134, .T. ) ;
#181 = EDGE_LOOP ( 'NONE', ( #114, #55, #163, #95 ) ) ;
#182 = ORIENTED_EDGE ( 'NONE', *, *, #141, .T. ) ;
#183 = VERTEX_POINT ( 'NONE', #193 ) ;
#184 = EDGE_CURVE ( 'NONE', #183, #96, #190, .T. ) ;
#185 = MANIFOLD_SOLID_BREP ( 'Sweep1', #172 ) ;
#186 = TOROIDAL_SURFACE ( 'NONE', #127, 3.000000000000000444, 0.9350000000000001643 ) ;
#187 = DIRECTION ( 'NONE',  ( -0.000000000000000000, -1.000000000000000000, 0.000000000000000000 ) ) ;
#188 = DIRECTION ( 'NONE',  ( -0.000000000000000000, -1.000000000000000000, 0.000000000000000000 ) ) ;
#189 = CARTESIAN_POINT ( 'NONE',  ( 3.000000000000000888, 0.000000000000000000, -3.000000000000000444 ) ) ;
#190 = CIRCLE ( 'NONE', #89, 0.9350000000000001643 ) ;
#191 = SURFACE_STYLE_USAGE ( .BOTH. , #150 ) ;
#192 = CARTESIAN_POINT ( 'NONE',  ( 3.000000000000000888, 0.000000000000000000, -3.000000000000000444 ) ) ;
#193 = CARTESIAN_POINT ( 'NONE',  ( -0.9350000000000002753, 0.000000000000000000, 0.000000000000000000 ) ) ;
#194 = AXIS2_PLACEMENT_3D ( 'NONE', #129, #53, #13 ) ;
#195 = FILL_AREA_STYLE ('',( #106 ) ) ;
#196 = UNCERTAINTY_MEASURE_WITH_UNIT (LENGTH_MEASURE( 1.000000000000000082E-05 ), #32, 'distance_accuracy_value', 'NONE');
#197 = CARTESIAN_POINT ( 'NONE',  ( 3.000000000000000888, 0.000000000000000000, -3.000000000000000444 ) ) ;
#198 = ORIENTED_EDGE ( 'NONE', *, *, #164, .T. ) ;
#199 = ADVANCED_FACE ( 'NONE', ( #105, #173 ), #169, .F. ) ;
#200 = ORIENTED_EDGE ( 'NONE', *, *, #33, .F. ) ;
#201 = STYLED_ITEM ( 'NONE', ( #218 ), #185 ) ;
#202 = PRODUCT_DEFINITION_CONTEXT ( 'detailed design', #154, 'design' ) ;
#203 = DIRECTION ( 'NONE',  ( 0.000000000000000000, 0.000000000000000000, 1.000000000000000000 ) ) ;
#204 = CARTESIAN_POINT ( 'NONE',  ( 3.000000000000000888, 0.000000000000000000, -2.000000000000000444 ) ) ;
#205 = TOROIDAL_SURFACE ( 'NONE', #93, 3.000000000000000444, 1.000000000000000000 ) ;
#206 = DIRECTION ( 'NONE',  ( -0.000000000000000000, -0.000000000000000000, -1.000000000000000000 ) ) ;
#207 = CARTESIAN_POINT ( 'NONE',  ( 3.000000000000000444, 0.000000000000000000, 0.000000000000000000 ) ) ;
#208 = EDGE_CURVE ( 'NONE', #56, #2, #48, .T. ) ;
#209 =( LENGTH_UNIT ( ) NAMED_UNIT ( * ) SI_UNIT ( $, .METRE. ) );
#210 =( GEOMETRIC_REPRESENTATION_CONTEXT ( 3 ) GLOBAL_UNCERTAINTY_ASSIGNED_CONTEXT ( ( #15 ) ) GLOBAL_UNIT_ASSIGNED_CONTEXT ( ( #213, #227, #177 ) ) REPRESENTATION_CONTEXT ( 'NONE', 'WORKASPACE' ) );
#211 =( LENGTH_UNIT ( ) NAMED_UNIT ( * ) SI_UNIT ( $, .METRE. ) );
#212 = LENGTH_MEASURE_WITH_UNIT ( LENGTH_MEASURE( 0.02539999999999999897 ), #211 );
#213 =( CONVERSION_BASED_UNIT ( 'INCH', #143 ) LENGTH_UNIT ( ) NAMED_UNIT ( #58 ) );
#214 = ORIENTED_EDGE ( 'NONE', *, *, #208, .T. ) ;
#215 = EDGE_CURVE ( 'NONE', #96, #20, #122, .T. ) ;
#216 = CIRCLE ( 'NONE', #99, 0.9350000000000001643 ) ;
#217 = ORIENTED_EDGE ( 'NONE', *, *, #180, .T. ) ;
#218 = PRESENTATION_STYLE_ASSIGNMENT (( #191 ) ) ;
#219 = COLOUR_RGB ( '',0.6470588235294117974, 0.6196078431372549211, 0.5882352941176470784 ) ;
#220 = DIRECTION ( 'NONE',  ( 0.000000000000000000, 0.000000000000000000, 1.000000000000000000 ) ) ;
#221 = DIRECTION ( 'NONE',  ( 0.000000000000000000, 0.000000000000000000, -1.000000000000000000 ) ) ;
#222 = DIRECTION ( 'NONE',  ( 0.000000000000000000, 0.000000000000000000, 1.000000000000000000 ) ) ;
#223 = EDGE_CURVE ( 'NONE', #20, #22, #176, .T. ) ;
#224 = AXIS2_PLACEMENT_3D ( 'NONE', #207, #137, #221 ) ;
#225 = CARTESIAN_POINT ( 'NONE',  ( 0.000000000000000000, 0.000000000000000000, 0.000000000000000000 ) ) ;
#226 = PRESENTATION_STYLE_ASSIGNMENT (( #108 ) ) ;
#227 =( NAMED_UNIT ( * ) PLANE_ANGLE_UNIT ( ) SI_UNIT ( $, .RADIAN. ) );
ENDSEC;
END-ISO-10303-21;
