ISO-10303-21;
HEADER;
FILE_DESCRIPTION (( 'STEP AP214' ),
    '1' );
FILE_NAME ('711001.STEP',
    '2024-01-07T04:21:33',
    ( '' ),
    ( '' ),
    'SwSTEP 2.0',
    'SolidWorks 2022',
    '' );
FILE_SCHEMA (( 'AUTOMOTIVE_DESIGN' ));
ENDSEC;

DATA;
#1 =( CONVERSION_BASED_UNIT ( 'INCH', #37 ) LENGTH_UNIT ( ) NAMED_UNIT ( #20 ) );
#2 = ORIENTED_EDGE ( 'NONE', *, *, #64, .T. ) ;
#3 = CIRCLE ( 'NONE', #24, 0.09375000000000012490 ) ;
#4 = EDGE_CURVE ( 'NONE', #127, #124, #15, .T. ) ;
#5 = CARTESIAN_POINT ( 'NONE',  ( 0.000000000000000000, 6.123233995736764803E-17, -0.4999999999999998335 ) ) ;
#6 = COLOUR_RGB ( '',0.2980392156862745057, 0.2980392156862745057, 0.2980392156862745057 ) ;
#7 = DIRECTION ( 'NONE',  ( 0.000000000000000000, 0.000000000000000000, 1.000000000000000000 ) ) ;
#8 = LENGTH_MEASURE_WITH_UNIT ( LENGTH_MEASURE( 0.02539999999999999897 ), #153 );
#9 = FACE_OUTER_BOUND ( 'NONE', #149, .T. ) ;
#10 = DIRECTION ( 'NONE',  ( -1.000000000000000000, -0.000000000000000000, -0.000000000000000000 ) ) ;
#11 = MANIFOLD_SOLID_BREP ( 'Revolve1', #76 ) ;
#12 = CARTESIAN_POINT ( 'NONE',  ( 1.148106374200644787E-17, 0.000000000000000000, 0.000000000000000000 ) ) ;
#13 = DIRECTION ( 'NONE',  ( 0.000000000000000000, 0.000000000000000000, 1.000000000000000000 ) ) ;
#14 = EDGE_CURVE ( 'NONE', #127, #28, #112, .T. ) ;
#15 = CIRCLE ( 'NONE', #147, 0.09375000000000012490 ) ;
#16 =( NAMED_UNIT ( * ) SI_UNIT ( $, .STERADIAN. ) SOLID_ANGLE_UNIT ( ) );
#17 = CARTESIAN_POINT ( 'NONE',  ( 1.148106374200644787E-17, 0.000000000000000000, 0.000000000000000000 ) ) ;
#18 = PRODUCT_DEFINITION_SHAPE ( 'NONE', 'NONE',  #123 ) ;
#19 = DIRECTION ( 'NONE',  ( 0.000000000000000000, 0.000000000000000000, -1.000000000000000000 ) ) ;
#20 = DIMENSIONAL_EXPONENTS ( 1.000000000000000000, 0.000000000000000000, 0.000000000000000000, 0.000000000000000000, 0.000000000000000000, 0.000000000000000000, 0.000000000000000000 ) ;
#21 = SURFACE_STYLE_USAGE ( .BOTH. , #98 ) ;
#22 = CARTESIAN_POINT ( 'NONE',  ( 0.000000000000000000, 0.000000000000000000, 0.6875000000000001110 ) ) ;
#23 = DIRECTION ( 'NONE',  ( 0.000000000000000000, 0.000000000000000000, 1.000000000000000000 ) ) ;
#24 = AXIS2_PLACEMENT_3D ( 'NONE', #26, #59, #159 ) ;
#25 = DIRECTION ( 'NONE',  ( -1.000000000000000000, -0.000000000000000000, -0.000000000000000000 ) ) ;
#26 = CARTESIAN_POINT ( 'NONE',  ( 0.000000000000000000, 7.271340369937409282E-17, -0.5937500000000000000 ) ) ;
#27 =( LENGTH_UNIT ( ) NAMED_UNIT ( * ) SI_UNIT ( $, .METRE. ) );
#28 = VERTEX_POINT ( 'NONE', #5 ) ;
#29 = ADVANCED_FACE ( 'NONE', ( #54 ), #138, .T. ) ;
#30 = ORIENTED_EDGE ( 'NONE', *, *, #105, .T. ) ;
#31 =( GEOMETRIC_REPRESENTATION_CONTEXT ( 3 ) GLOBAL_UNCERTAINTY_ASSIGNED_CONTEXT ( ( #161 ) ) GLOBAL_UNIT_ASSIGNED_CONTEXT ( ( #122, #104, #16 ) ) REPRESENTATION_CONTEXT ( 'NONE', 'WORKASPACE' ) );
#32 = CIRCLE ( 'NONE', #164, 0.6875000000000001110 ) ;
#33 = FILL_AREA_STYLE ('',( #129 ) ) ;
#34 = ORIENTED_EDGE ( 'NONE', *, *, #77, .F. ) ;
#35 = SURFACE_SIDE_STYLE ('',( #88 ) ) ;
#36 = FILL_AREA_STYLE_COLOUR ( '', #6 ) ;
#37 = LENGTH_MEASURE_WITH_UNIT ( LENGTH_MEASURE( 0.02539999999999999897 ), #99 );
#38 = CIRCLE ( 'NONE', #43, 0.09375000000000012490 ) ;
#39 = ADVANCED_FACE ( 'NONE', ( #107 ), #150, .T. ) ;
#40 = ORIENTED_EDGE ( 'NONE', *, *, #77, .T. ) ;
#41 =( NAMED_UNIT ( * ) SI_UNIT ( $, .STERADIAN. ) SOLID_ANGLE_UNIT ( ) );
#42 = EDGE_CURVE ( 'NONE', #124, #163, #66, .T. ) ;
#43 = AXIS2_PLACEMENT_3D ( 'NONE', #134, #71, #114 ) ;
#44 = ORIENTED_EDGE ( 'NONE', *, *, #42, .T. ) ;
#45 = ORIENTED_EDGE ( 'NONE', *, *, #103, .T. ) ;
#46 = DIRECTION ( 'NONE',  ( 0.000000000000000000, 0.000000000000000000, 1.000000000000000000 ) ) ;
#47 = ADVANCED_BREP_SHAPE_REPRESENTATION ( '711001', ( #11, #146 ), #85 ) ;
#48 = AXIS2_PLACEMENT_3D ( 'NONE', #102, #118, #61 ) ;
#49 = APPLICATION_PROTOCOL_DEFINITION ( 'draft international standard', 'automotive_design', 1998, #158 ) ;
#50 =( NAMED_UNIT ( * ) SI_UNIT ( $, .STERADIAN. ) SOLID_ANGLE_UNIT ( ) );
#51 = ORIENTED_EDGE ( 'NONE', *, *, #151, .T. ) ;
#52 = PRODUCT_CONTEXT ( 'NONE', #158, 'mechanical' ) ;
#53 = TOROIDAL_SURFACE ( 'NONE', #78, 0.5937500000000000000, 0.09375000000000009714 ) ;
#54 = FACE_OUTER_BOUND ( 'NONE', #70, .T. ) ;
#55 = TOROIDAL_SURFACE ( 'NONE', #48, 0.5937500000000000000, 0.09375000000000009714 ) ;
#56 = STYLED_ITEM ( 'NONE', ( #139 ), #11 ) ;
#57 = ORIENTED_EDGE ( 'NONE', *, *, #64, .F. ) ;
#58 = UNCERTAINTY_MEASURE_WITH_UNIT (LENGTH_MEASURE( 1.000000000000000082E-05 ), #1, 'distance_accuracy_value', 'NONE');
#59 = DIRECTION ( 'NONE',  ( -0.000000000000000000, 1.000000000000000000, 1.224646799147353207E-16 ) ) ;
#60 = DIMENSIONAL_EXPONENTS ( 1.000000000000000000, 0.000000000000000000, 0.000000000000000000, 0.000000000000000000, 0.000000000000000000, 0.000000000000000000, 0.000000000000000000 ) ;
#61 = DIRECTION ( 'NONE',  ( 0.000000000000000000, 0.000000000000000000, 1.000000000000000000 ) ) ;
#62 = CIRCLE ( 'NONE', #96, 0.09375000000000012490 ) ;
#63 = DIRECTION ( 'NONE',  ( -1.000000000000000000, -0.000000000000000000, -0.000000000000000000 ) ) ;
#64 = EDGE_CURVE ( 'NONE', #124, #127, #62, .T. ) ;
#65 = LENGTH_MEASURE_WITH_UNIT ( LENGTH_MEASURE( 0.02539999999999999897 ), #27 );
#66 = CIRCLE ( 'NONE', #133, 0.6875000000000001110 ) ;
#67 = EDGE_LOOP ( 'NONE', ( #95, #30, #2, #34 ) ) ;
#68 = AXIS2_PLACEMENT_3D ( 'NONE', #12, #90, #117 ) ;
#69 = CARTESIAN_POINT ( 'NONE',  ( 0.000000000000000000, 0.000000000000000000, 0.5937500000000000000 ) ) ;
#70 = EDGE_LOOP ( 'NONE', ( #121, #162, #97, #45 ) ) ;
#71 = DIRECTION ( 'NONE',  ( -0.000000000000000000, 1.000000000000000000, 1.224646799147353207E-16 ) ) ;
#72 =( NAMED_UNIT ( * ) PLANE_ANGLE_UNIT ( ) SI_UNIT ( $, .RADIAN. ) );
#73 = DIRECTION ( 'NONE',  ( 0.000000000000000000, 0.000000000000000000, 1.000000000000000000 ) ) ;
#74 = PRESENTATION_LAYER_ASSIGNMENT (  '', '', ( #110 ) ) ;
#75 = FILL_AREA_STYLE ('',( #36 ) ) ;
#76 = CLOSED_SHELL ( 'NONE', ( #143, #141, #29, #39 ) ) ;
#77 = EDGE_CURVE ( 'NONE', #28, #127, #125, .T. ) ;
#78 = AXIS2_PLACEMENT_3D ( 'NONE', #145, #166, #73 ) ;
#79 = PRESENTATION_LAYER_ASSIGNMENT (  '', '', ( #56 ) ) ;
#80 = APPLICATION_PROTOCOL_DEFINITION ( 'draft international standard', 'automotive_design', 1998, #89 ) ;
#81 = DIRECTION ( 'NONE',  ( -1.000000000000000000, -0.000000000000000000, -0.000000000000000000 ) ) ;
#82 = UNCERTAINTY_MEASURE_WITH_UNIT (LENGTH_MEASURE( 1.000000000000000082E-05 ), #126, 'distance_accuracy_value', 'NONE');
#83 = EDGE_LOOP ( 'NONE', ( #152, #155, #40, #111 ) ) ;
#84 = CARTESIAN_POINT ( 'NONE',  ( 0.000000000000000000, 0.000000000000000000, 0.000000000000000000 ) ) ;
#85 =( GEOMETRIC_REPRESENTATION_CONTEXT ( 3 ) GLOBAL_UNCERTAINTY_ASSIGNED_CONTEXT ( ( #58 ) ) GLOBAL_UNIT_ASSIGNED_CONTEXT ( ( #1, #72, #50 ) ) REPRESENTATION_CONTEXT ( 'NONE', 'WORKASPACE' ) );
#86 = FACE_OUTER_BOUND ( 'NONE', #67, .T. ) ;
#87 = CARTESIAN_POINT ( 'NONE',  ( 0.000000000000000000, 0.000000000000000000, 0.000000000000000000 ) ) ;
#88 = SURFACE_STYLE_FILL_AREA ( #75 ) ;
#89 = APPLICATION_CONTEXT ( 'automotive_design' ) ;
#90 = DIRECTION ( 'NONE',  ( -1.000000000000000000, -0.000000000000000000, -0.000000000000000000 ) ) ;
#91 = SHAPE_DEFINITION_REPRESENTATION ( #18, #47 ) ;
#92 = PRESENTATION_STYLE_ASSIGNMENT (( #119 ) ) ;
#93 = ORIENTED_EDGE ( 'NONE', *, *, #14, .F. ) ;
#94 = MECHANICAL_DESIGN_GEOMETRIC_PRESENTATION_REPRESENTATION (  '', ( #110 ), #31 ) ;
#95 = ORIENTED_EDGE ( 'NONE', *, *, #151, .F. ) ;
#96 = AXIS2_PLACEMENT_3D ( 'NONE', #167, #135, #144 ) ;
#97 = ORIENTED_EDGE ( 'NONE', *, *, #14, .T. ) ;
#98 = SURFACE_SIDE_STYLE ('',( #165 ) ) ;
#99 =( LENGTH_UNIT ( ) NAMED_UNIT ( * ) SI_UNIT ( $, .METRE. ) );
#100 = PRODUCT_DEFINITION_FORMATION_WITH_SPECIFIED_SOURCE ( 'ANY', '', #137, .NOT_KNOWN. ) ;
#101 =( GEOMETRIC_REPRESENTATION_CONTEXT ( 3 ) GLOBAL_UNCERTAINTY_ASSIGNED_CONTEXT ( ( #82 ) ) GLOBAL_UNIT_ASSIGNED_CONTEXT ( ( #126, #113, #41 ) ) REPRESENTATION_CONTEXT ( 'NONE', 'WORKASPACE' ) );
#102 = CARTESIAN_POINT ( 'NONE',  ( 0.000000000000000000, 0.000000000000000000, 0.000000000000000000 ) ) ;
#103 = EDGE_CURVE ( 'NONE', #28, #163, #38, .T. ) ;
#104 =( NAMED_UNIT ( * ) PLANE_ANGLE_UNIT ( ) SI_UNIT ( $, .RADIAN. ) );
#105 = EDGE_CURVE ( 'NONE', #163, #124, #32, .T. ) ;
#106 = PRODUCT_RELATED_PRODUCT_CATEGORY ( 'part', '', ( #137 ) ) ;
#107 = FACE_OUTER_BOUND ( 'NONE', #83, .T. ) ;
#108 = COLOUR_RGB ( '',0.2980392156862745057, 0.2980392156862745057, 0.2980392156862745057 ) ;
#109 = DIMENSIONAL_EXPONENTS ( 1.000000000000000000, 0.000000000000000000, 0.000000000000000000, 0.000000000000000000, 0.000000000000000000, 0.000000000000000000, 0.000000000000000000 ) ;
#110 = STYLED_ITEM ( 'NONE', ( #92 ), #47 ) ;
#111 = ORIENTED_EDGE ( 'NONE', *, *, #4, .T. ) ;
#112 = CIRCLE ( 'NONE', #154, 0.4999999999999998335 ) ;
#113 =( NAMED_UNIT ( * ) PLANE_ANGLE_UNIT ( ) SI_UNIT ( $, .RADIAN. ) );
#114 = DIRECTION ( 'NONE',  ( 0.000000000000000000, -1.224646799147352714E-16, 1.000000000000000000 ) ) ;
#115 = CARTESIAN_POINT ( 'NONE',  ( 0.000000000000000000, 0.000000000000000000, 0.000000000000000000 ) ) ;
#116 = MECHANICAL_DESIGN_GEOMETRIC_PRESENTATION_REPRESENTATION (  '', ( #56 ), #101 ) ;
#117 = DIRECTION ( 'NONE',  ( 0.000000000000000000, 0.000000000000000000, 1.000000000000000000 ) ) ;
#118 = DIRECTION ( 'NONE',  ( -1.000000000000000000, -0.000000000000000000, -0.000000000000000000 ) ) ;
#119 = SURFACE_STYLE_USAGE ( .BOTH. , #35 ) ;
#120 = DIRECTION ( 'NONE',  ( 1.000000000000000000, 0.000000000000000000, 0.000000000000000000 ) ) ;
#121 = ORIENTED_EDGE ( 'NONE', *, *, #42, .F. ) ;
#122 =( CONVERSION_BASED_UNIT ( 'INCH', #65 ) LENGTH_UNIT ( ) NAMED_UNIT ( #60 ) );
#123 = PRODUCT_DEFINITION ( 'UNKNOWN', '', #100, #128 ) ;
#124 = VERTEX_POINT ( 'NONE', #22 ) ;
#125 = CIRCLE ( 'NONE', #68, 0.4999999999999998335 ) ;
#126 =( CONVERSION_BASED_UNIT ( 'INCH', #8 ) LENGTH_UNIT ( ) NAMED_UNIT ( #109 ) );
#127 = VERTEX_POINT ( 'NONE', #148 ) ;
#128 = PRODUCT_DEFINITION_CONTEXT ( 'detailed design', #89, 'design' ) ;
#129 = FILL_AREA_STYLE_COLOUR ( '', #108 ) ;
#130 = DIRECTION ( 'NONE',  ( -1.000000000000000000, -0.000000000000000000, -0.000000000000000000 ) ) ;
#131 = DIRECTION ( 'NONE',  ( 0.000000000000000000, 0.000000000000000000, 1.000000000000000000 ) ) ;
#132 = CARTESIAN_POINT ( 'NONE',  ( 0.000000000000000000, 8.419446744138052529E-17, -0.6875000000000001110 ) ) ;
#133 = AXIS2_PLACEMENT_3D ( 'NONE', #157, #63, #23 ) ;
#134 = CARTESIAN_POINT ( 'NONE',  ( 0.000000000000000000, 7.271340369937409282E-17, -0.5937500000000000000 ) ) ;
#135 = DIRECTION ( 'NONE',  ( 0.000000000000000000, -1.000000000000000000, 0.000000000000000000 ) ) ;
#136 = DIRECTION ( 'NONE',  ( 0.000000000000000000, 0.000000000000000000, 1.000000000000000000 ) ) ;
#137 = PRODUCT ( '711001', '711001', '', ( #52 ) ) ;
#138 = TOROIDAL_SURFACE ( 'NONE', #140, 0.5937500000000000000, 0.09375000000000009714 ) ;
#139 = PRESENTATION_STYLE_ASSIGNMENT (( #21 ) ) ;
#140 = AXIS2_PLACEMENT_3D ( 'NONE', #115, #25, #131 ) ;
#141 = ADVANCED_FACE ( 'NONE', ( #9 ), #53, .T. ) ;
#142 = DIRECTION ( 'NONE',  ( 0.000000000000000000, -1.000000000000000000, 0.000000000000000000 ) ) ;
#143 = ADVANCED_FACE ( 'NONE', ( #86 ), #55, .T. ) ;
#144 = DIRECTION ( 'NONE',  ( 0.000000000000000000, 0.000000000000000000, -1.000000000000000000 ) ) ;
#145 = CARTESIAN_POINT ( 'NONE',  ( 0.000000000000000000, 0.000000000000000000, 0.000000000000000000 ) ) ;
#146 = AXIS2_PLACEMENT_3D ( 'NONE', #160, #136, #120 ) ;
#147 = AXIS2_PLACEMENT_3D ( 'NONE', #69, #142, #19 ) ;
#148 = CARTESIAN_POINT ( 'NONE',  ( 0.000000000000000000, 0.000000000000000000, 0.4999999999999998335 ) ) ;
#149 = EDGE_LOOP ( 'NONE', ( #57, #44, #51, #93 ) ) ;
#150 = TOROIDAL_SURFACE ( 'NONE', #156, 0.5937500000000000000, 0.09375000000000009714 ) ;
#151 = EDGE_CURVE ( 'NONE', #163, #28, #3, .T. ) ;
#152 = ORIENTED_EDGE ( 'NONE', *, *, #105, .F. ) ;
#153 =( LENGTH_UNIT ( ) NAMED_UNIT ( * ) SI_UNIT ( $, .METRE. ) );
#154 = AXIS2_PLACEMENT_3D ( 'NONE', #17, #81, #7 ) ;
#155 = ORIENTED_EDGE ( 'NONE', *, *, #103, .F. ) ;
#156 = AXIS2_PLACEMENT_3D ( 'NONE', #87, #10, #46 ) ;
#157 = CARTESIAN_POINT ( 'NONE',  ( 0.000000000000000000, 0.000000000000000000, 0.000000000000000000 ) ) ;
#158 = APPLICATION_CONTEXT ( 'automotive_design' ) ;
#159 = DIRECTION ( 'NONE',  ( 0.000000000000000000, -1.224646799147352714E-16, 1.000000000000000000 ) ) ;
#160 = CARTESIAN_POINT ( 'NONE',  ( 0.000000000000000000, 0.000000000000000000, 0.000000000000000000 ) ) ;
#161 = UNCERTAINTY_MEASURE_WITH_UNIT (LENGTH_MEASURE( 1.000000000000000082E-05 ), #122, 'distance_accuracy_value', 'NONE');
#162 = ORIENTED_EDGE ( 'NONE', *, *, #4, .F. ) ;
#163 = VERTEX_POINT ( 'NONE', #132 ) ;
#164 = AXIS2_PLACEMENT_3D ( 'NONE', #84, #130, #13 ) ;
#165 = SURFACE_STYLE_FILL_AREA ( #33 ) ;
#166 = DIRECTION ( 'NONE',  ( -1.000000000000000000, -0.000000000000000000, -0.000000000000000000 ) ) ;
#167 = CARTESIAN_POINT ( 'NONE',  ( 0.000000000000000000, 0.000000000000000000, 0.5937500000000000000 ) ) ;
ENDSEC;
END-ISO-10303-21;
