ISO-10303-21;
HEADER;
FILE_DESCRIPTION (( 'STEP AP214' ),
    '1' );
FILE_NAME ('712003.STEP',
    '2023-12-30T07:12:29',
    ( '' ),
    ( '' ),
    'SwSTEP 2.0',
    'SolidWorks 2022',
    '' );
FILE_SCHEMA (( 'AUTOMOTIVE_DESIGN' ));
ENDSEC;

DATA;
#1 = EDGE_CURVE ( 'NONE', #328, #249, #196, .T. ) ;
#2 = EDGE_LOOP ( 'NONE', ( #279, #23, #332, #87 ) ) ;
#3 = FACE_OUTER_BOUND ( 'NONE', #2, .T. ) ;
#4 = CARTESIAN_POINT ( 'NONE',  ( 0.1000000000000000194, 0.000000000000000000, 0.000000000000000000 ) ) ;
#5 =( CONVERSION_BASED_UNIT ( 'INCH', #97 ) LENGTH_UNIT ( ) NAMED_UNIT ( #227 ) );
#6 = VECTOR ( 'NONE', #338, 39.37007874015748143 ) ;
#7 = FACE_OUTER_BOUND ( 'NONE', #299, .T. ) ;
#8 = DIRECTION ( 'NONE',  ( 0.2588190451025214611, 0.000000000000000000, -0.9659258262890682012 ) ) ;
#9 = CONICAL_SURFACE ( 'NONE', #212, 1.474999999999999867, 1.308996938995746540 ) ;
#10 = AXIS2_PLACEMENT_3D ( 'NONE', #347, #71, #153 ) ;
#11 = LINE ( 'NONE', #177, #132 ) ;
#12 = DIRECTION ( 'NONE',  ( -1.000000000000000000, 0.000000000000000000, -0.000000000000000000 ) ) ;
#13 = CYLINDRICAL_SURFACE ( 'NONE', #131, 1.032499999999999973 ) ;
#14 = DIRECTION ( 'NONE',  ( 0.000000000000000000, 0.000000000000000000, -1.000000000000000000 ) ) ;
#15 = DIRECTION ( 'NONE',  ( 1.000000000000000000, 0.000000000000000000, 0.000000000000000000 ) ) ;
#16 = DIRECTION ( 'NONE',  ( 0.000000000000000000, 0.000000000000000000, 1.000000000000000000 ) ) ;
#17 = CIRCLE ( 'NONE', #333, 1.474999999999999867 ) ;
#18 =( CONVERSION_BASED_UNIT ( 'INCH', #241 ) LENGTH_UNIT ( ) NAMED_UNIT ( #151 ) );
#19 = ORIENTED_EDGE ( 'NONE', *, *, #100, .F. ) ;
#20 = EDGE_CURVE ( 'NONE', #53, #166, #359, .T. ) ;
#21 =( LENGTH_UNIT ( ) NAMED_UNIT ( * ) SI_UNIT ( $, .METRE. ) );
#22 = ORIENTED_EDGE ( 'NONE', *, *, #250, .F. ) ;
#23 = ORIENTED_EDGE ( 'NONE', *, *, #20, .T. ) ;
#24 = EDGE_LOOP ( 'NONE', ( #148, #56, #141, #254 ) ) ;
#25 = EDGE_LOOP ( 'NONE', ( #112, #354, #327, #57 ) ) ;
#26 = CIRCLE ( 'NONE', #235, 1.032499999999999973 ) ;
#27 = VECTOR ( 'NONE', #239, 39.37007874015748143 ) ;
#28 = FACE_OUTER_BOUND ( 'NONE', #275, .T. ) ;
#29 = DIRECTION ( 'NONE',  ( 0.000000000000000000, 0.000000000000000000, 1.000000000000000000 ) ) ;
#30 = CARTESIAN_POINT ( 'NONE',  ( 0.000000000000000000, 0.000000000000000000, 0.000000000000000000 ) ) ;
#31 = ADVANCED_FACE ( 'NONE', ( #28 ), #358, .F. ) ;
#32 = VERTEX_POINT ( 'NONE', #223 ) ;
#33 = DIRECTION ( 'NONE',  ( 1.000000000000000000, 0.000000000000000000, 0.000000000000000000 ) ) ;
#34 = CARTESIAN_POINT ( 'NONE',  ( 0.1000000000000000194, 1.264447820119642160E-16, -1.032499999999999973 ) ) ;
#35 = CARTESIAN_POINT ( 'NONE',  ( 0.000000000000000000, 0.000000000000000000, 1.474999999999999867 ) ) ;
#36 = SURFACE_STYLE_FILL_AREA ( #206 ) ;
#37 = APPLICATION_CONTEXT ( 'automotive_design' ) ;
#38 = DIRECTION ( 'NONE',  ( 0.000000000000000000, 0.000000000000000000, 1.000000000000000000 ) ) ;
#39 = PRODUCT_DEFINITION ( 'UNKNOWN', '', #253, #113 ) ;
#40 = CARTESIAN_POINT ( 'NONE',  ( 0.1000000000000000194, 0.000000000000000000, 0.000000000000000000 ) ) ;
#41 = CARTESIAN_POINT ( 'NONE',  ( 0.1999999999999999556, 0.000000000000000000, 0.000000000000000000 ) ) ;
#42 = DIRECTION ( 'NONE',  ( 0.000000000000000000, 0.000000000000000000, 1.000000000000000000 ) ) ;
#43 = CIRCLE ( 'NONE', #344, 0.9395000000000000018 ) ;
#44 = DIRECTION ( 'NONE',  ( 0.000000000000000000, 0.000000000000000000, 1.000000000000000000 ) ) ;
#45 = SURFACE_SIDE_STYLE ('',( #135 ) ) ;
#46 = AXIS2_PLACEMENT_3D ( 'NONE', #321, #187, #47 ) ;
#47 = DIRECTION ( 'NONE',  ( -0.000000000000000000, 0.000000000000000000, 1.000000000000000000 ) ) ;
#48 = PRODUCT_CONTEXT ( 'NONE', #293, 'mechanical' ) ;
#49 = EDGE_CURVE ( 'NONE', #244, #166, #290, .T. ) ;
#50 =( GEOMETRIC_REPRESENTATION_CONTEXT ( 3 ) GLOBAL_UNCERTAINTY_ASSIGNED_CONTEXT ( ( #326 ) ) GLOBAL_UNIT_ASSIGNED_CONTEXT ( ( #5, #335, #308 ) ) REPRESENTATION_CONTEXT ( 'NONE', 'WORKASPACE' ) );
#51 =( NAMED_UNIT ( * ) PLANE_ANGLE_UNIT ( ) SI_UNIT ( $, .RADIAN. ) );
#52 = EDGE_LOOP ( 'NONE', ( #218, #85, #91, #171 ) ) ;
#53 = VERTEX_POINT ( 'NONE', #60 ) ;
#54 = ORIENTED_EDGE ( 'NONE', *, *, #300, .T. ) ;
#55 = PRODUCT_RELATED_PRODUCT_CATEGORY ( 'part', '', ( #216 ) ) ;
#56 = ORIENTED_EDGE ( 'NONE', *, *, #117, .F. ) ;
#57 = ORIENTED_EDGE ( 'NONE', *, *, #322, .F. ) ;
#58 = CIRCLE ( 'NONE', #267, 0.9395000000000000018 ) ;
#59 = STYLED_ITEM ( 'NONE', ( #188 ), #215 ) ;
#60 = CARTESIAN_POINT ( 'NONE',  ( 0.1999999999999998446, 1.806354028742346048E-16, -1.474999999999999867 ) ) ;
#61 = EDGE_CURVE ( 'NONE', #82, #193, #165, .T. ) ;
#62 = DIRECTION ( 'NONE',  ( -1.000000000000000000, -0.000000000000000000, -0.000000000000000000 ) ) ;
#63 = ORIENTED_EDGE ( 'NONE', *, *, #117, .T. ) ;
#64 = FACE_OUTER_BOUND ( 'NONE', #52, .T. ) ;
#65 = CARTESIAN_POINT ( 'NONE',  ( 0.000000000000000000, 1.264447820119642160E-16, -1.032499999999999973 ) ) ;
#66 = DIRECTION ( 'NONE',  ( 0.000000000000000000, 0.000000000000000000, 1.000000000000000000 ) ) ;
#67 = DIRECTION ( 'NONE',  ( -1.000000000000000000, -0.000000000000000000, -0.000000000000000000 ) ) ;
#68 = DIRECTION ( 'NONE',  ( 1.000000000000000000, 0.000000000000000000, 0.000000000000000000 ) ) ;
#69 =( NAMED_UNIT ( * ) PLANE_ANGLE_UNIT ( ) SI_UNIT ( $, .RADIAN. ) );
#70 = DIRECTION ( 'NONE',  ( 0.000000000000000000, 0.000000000000000000, 1.000000000000000000 ) ) ;
#71 = DIRECTION ( 'NONE',  ( -1.000000000000000000, -0.000000000000000000, -0.000000000000000000 ) ) ;
#72 = SURFACE_STYLE_USAGE ( .BOTH. , #316 ) ;
#73 = MECHANICAL_DESIGN_GEOMETRIC_PRESENTATION_REPRESENTATION (  '', ( #118 ), #50 ) ;
#74 = DIRECTION ( 'NONE',  ( -1.000000000000000000, -0.000000000000000000, -0.000000000000000000 ) ) ;
#75 = CYLINDRICAL_SURFACE ( 'NONE', #90, 1.474999999999999867 ) ;
#76 = ADVANCED_FACE ( 'NONE', ( #224 ), #125, .T. ) ;
#77 = APPLICATION_PROTOCOL_DEFINITION ( 'draft international standard', 'automotive_design', 1998, #37 ) ;
#78 = CARTESIAN_POINT ( 'NONE',  ( 0.1000000000000000194, 0.000000000000000000, 0.000000000000000000 ) ) ;
#79 = EDGE_CURVE ( 'NONE', #197, #249, #317, .T. ) ;
#80 = AXIS2_PLACEMENT_3D ( 'NONE', #185, #294, #44 ) ;
#81 = DIRECTION ( 'NONE',  ( 0.000000000000000000, 0.000000000000000000, 1.000000000000000000 ) ) ;
#82 = VERTEX_POINT ( 'NONE', #130 ) ;
#83 = ORIENTED_EDGE ( 'NONE', *, *, #250, .T. ) ;
#84 = ORIENTED_EDGE ( 'NONE', *, *, #322, .T. ) ;
#85 = ORIENTED_EDGE ( 'NONE', *, *, #175, .T. ) ;
#86 = AXIS2_PLACEMENT_3D ( 'NONE', #173, #203, #149 ) ;
#87 = ORIENTED_EDGE ( 'NONE', *, *, #349, .F. ) ;
#88 = ADVANCED_FACE ( 'NONE', ( #264 ), #180, .F. ) ;
#89 = DIRECTION ( 'NONE',  ( -1.000000000000000000, -0.000000000000000000, -0.000000000000000000 ) ) ;
#90 = AXIS2_PLACEMENT_3D ( 'NONE', #319, #133, #237 ) ;
#91 = ORIENTED_EDGE ( 'NONE', *, *, #49, .T. ) ;
#92 = DIRECTION ( 'NONE',  ( 0.000000000000000000, 0.000000000000000000, 1.000000000000000000 ) ) ;
#93 = LINE ( 'NONE', #65, #251 ) ;
#94 = CARTESIAN_POINT ( 'NONE',  ( 0.000000000000000000, 0.000000000000000000, 0.000000000000000000 ) ) ;
#95 = LINE ( 'NONE', #152, #161 ) ;
#96 =( LENGTH_UNIT ( ) NAMED_UNIT ( * ) SI_UNIT ( $, .METRE. ) );
#97 = LENGTH_MEASURE_WITH_UNIT ( LENGTH_MEASURE( 0.02539999999999999897 ), #121 );
#98 = AXIS2_PLACEMENT_3D ( 'NONE', #78, #240, #242 ) ;
#99 =( GEOMETRIC_REPRESENTATION_CONTEXT ( 3 ) GLOBAL_UNCERTAINTY_ASSIGNED_CONTEXT ( ( #246 ) ) GLOBAL_UNIT_ASSIGNED_CONTEXT ( ( #101, #69, #156 ) ) REPRESENTATION_CONTEXT ( 'NONE', 'WORKASPACE' ) );
#100 = EDGE_CURVE ( 'NONE', #114, #53, #17, .T. ) ;
#101 =( CONVERSION_BASED_UNIT ( 'INCH', #129 ) LENGTH_UNIT ( ) NAMED_UNIT ( #261 ) );
#102 = DIRECTION ( 'NONE',  ( 0.000000000000000000, 0.000000000000000000, 1.000000000000000000 ) ) ;
#103 = MANIFOLD_SOLID_BREP ( 'Revolve1', #277 ) ;
#104 = AXIS2_PLACEMENT_3D ( 'NONE', #172, #280, #29 ) ;
#105 = CYLINDRICAL_SURFACE ( 'NONE', #324, 0.9395000000000000018 ) ;
#106 = EDGE_CURVE ( 'NONE', #355, #197, #233, .T. ) ;
#107 = FACE_BOUND ( 'NONE', #169, .T. ) ;
#108 = FILL_AREA_STYLE ('',( #247 ) ) ;
#109 = AXIS2_PLACEMENT_3D ( 'NONE', #176, #348, #14 ) ;
#110 = MECHANICAL_DESIGN_GEOMETRIC_PRESENTATION_REPRESENTATION (  '', ( #59 ), #323 ) ;
#111 =( NAMED_UNIT ( * ) SI_UNIT ( $, .STERADIAN. ) SOLID_ANGLE_UNIT ( ) );
#112 = ORIENTED_EDGE ( 'NONE', *, *, #1, .F. ) ;
#113 = PRODUCT_DEFINITION_CONTEXT ( 'detailed design', #37, 'design' ) ;
#114 = VERTEX_POINT ( 'NONE', #342 ) ;
#115 = EDGE_LOOP ( 'NONE', ( #116, #83, #302, #330 ) ) ;
#116 = ORIENTED_EDGE ( 'NONE', *, *, #20, .F. ) ;
#117 = EDGE_CURVE ( 'NONE', #301, #32, #182, .T. ) ;
#118 = STYLED_ITEM ( 'NONE', ( #184 ), #103 ) ;
#119 = DIRECTION ( 'NONE',  ( -1.000000000000000000, -0.000000000000000000, -0.000000000000000000 ) ) ;
#120 = DIRECTION ( 'NONE',  ( 0.000000000000000000, 0.000000000000000000, 1.000000000000000000 ) ) ;
#121 =( LENGTH_UNIT ( ) NAMED_UNIT ( * ) SI_UNIT ( $, .METRE. ) );
#122 = DIRECTION ( 'NONE',  ( -0.000000000000000000, 0.000000000000000000, 1.000000000000000000 ) ) ;
#123 = DIRECTION ( 'NONE',  ( -1.000000000000000000, -0.000000000000000000, -0.000000000000000000 ) ) ;
#124 = CARTESIAN_POINT ( 'NONE',  ( 0.000000000000000000, 0.000000000000000000, -1.176435935394491095 ) ) ;
#125 = CYLINDRICAL_SURFACE ( 'NONE', #272, 0.9395000000000000018 ) ;
#126 = ADVANCED_FACE ( 'NONE', ( #281 ), #314, .T. ) ;
#127 = CARTESIAN_POINT ( 'NONE',  ( 0.07999999999999984901, 1.806354028742346048E-16, 1.474999999999999867 ) ) ;
#128 = DIRECTION ( 'NONE',  ( -1.000000000000000000, 0.000000000000000000, -0.000000000000000000 ) ) ;
#129 = LENGTH_MEASURE_WITH_UNIT ( LENGTH_MEASURE( 0.02539999999999999897 ), #96 );
#130 = CARTESIAN_POINT ( 'NONE',  ( 0.1999999999999999556, 1.264447820119642160E-16, -1.032499999999999973 ) ) ;
#131 = AXIS2_PLACEMENT_3D ( 'NONE', #134, #351, #16 ) ;
#132 = VECTOR ( 'NONE', #8, 39.37007874015747433 ) ;
#133 = DIRECTION ( 'NONE',  ( -1.000000000000000000, -0.000000000000000000, -0.000000000000000000 ) ) ;
#134 = CARTESIAN_POINT ( 'NONE',  ( 0.000000000000000000, 0.000000000000000000, 0.000000000000000000 ) ) ;
#135 = SURFACE_STYLE_FILL_AREA ( #108 ) ;
#136 = FACE_OUTER_BOUND ( 'NONE', #195, .T. ) ;
#137 = AXIS2_PLACEMENT_3D ( 'NONE', #334, #89, #305 ) ;
#138 = EDGE_LOOP ( 'NONE', ( #282, #190 ) ) ;
#139 = EDGE_LOOP ( 'NONE', ( #63, #221 ) ) ;
#140 = ORIENTED_EDGE ( 'NONE', *, *, #270, .F. ) ;
#141 = ORIENTED_EDGE ( 'NONE', *, *, #331, .T. ) ;
#142 = CIRCLE ( 'NONE', #278, 1.474999999999999867 ) ;
#143 = CIRCLE ( 'NONE', #245, 1.176435935394491095 ) ;
#144 = ORIENTED_EDGE ( 'NONE', *, *, #210, .T. ) ;
#145 = ADVANCED_FACE ( 'NONE', ( #64 ), #170, .T. ) ;
#146 = CARTESIAN_POINT ( 'NONE',  ( 0.000000000000000000, 0.000000000000000000, 0.000000000000000000 ) ) ;
#147 = AXIS2_PLACEMENT_3D ( 'NONE', #146, #119, #120 ) ;
#148 = ORIENTED_EDGE ( 'NONE', *, *, #175, .F. ) ;
#149 = DIRECTION ( 'NONE',  ( 0.000000000000000000, 0.000000000000000000, 1.000000000000000000 ) ) ;
#150 = ORIENTED_EDGE ( 'NONE', *, *, #1, .T. ) ;
#151 = DIMENSIONAL_EXPONENTS ( 1.000000000000000000, 0.000000000000000000, 0.000000000000000000, 0.000000000000000000, 0.000000000000000000, 0.000000000000000000, 0.000000000000000000 ) ;
#152 = CARTESIAN_POINT ( 'NONE',  ( 0.07999999999999984901, 1.806354028742346048E-16, 1.474999999999999867 ) ) ;
#153 = DIRECTION ( 'NONE',  ( 0.000000000000000000, 0.000000000000000000, 1.000000000000000000 ) ) ;
#154 = DIRECTION ( 'NONE',  ( 0.2588190451025214611, 1.182917971378669595E-16, 0.9659258262890682012 ) ) ;
#155 = VECTOR ( 'NONE', #62, 39.37007874015748143 ) ;
#156 =( NAMED_UNIT ( * ) SI_UNIT ( $, .STERADIAN. ) SOLID_ANGLE_UNIT ( ) );
#157 = DIRECTION ( 'NONE',  ( -1.000000000000000000, -0.000000000000000000, -0.000000000000000000 ) ) ;
#158 = CIRCLE ( 'NONE', #98, 1.032499999999999973 ) ;
#159 = APPLICATION_PROTOCOL_DEFINITION ( 'draft international standard', 'automotive_design', 1998, #293 ) ;
#160 = DIRECTION ( 'NONE',  ( -1.000000000000000000, -0.000000000000000000, -0.000000000000000000 ) ) ;
#161 = VECTOR ( 'NONE', #154, 39.37007874015747433 ) ;
#162 = CARTESIAN_POINT ( 'NONE',  ( 0.1000000000000000194, 0.000000000000000000, 0.9395000000000000018 ) ) ;
#163 = ADVANCED_FACE ( 'NONE', ( #284 ), #9, .T. ) ;
#164 = LINE ( 'NONE', #271, #296 ) ;
#165 = CIRCLE ( 'NONE', #104, 1.032499999999999973 ) ;
#166 = VERTEX_POINT ( 'NONE', #288 ) ;
#167 = VERTEX_POINT ( 'NONE', #34 ) ;
#168 = EDGE_CURVE ( 'NONE', #355, #328, #58, .T. ) ;
#169 = EDGE_LOOP ( 'NONE', ( #217, #84 ) ) ;
#170 = CONICAL_SURFACE ( 'NONE', #202, 1.474999999999999867, 1.308996938995746540 ) ;
#171 = ORIENTED_EDGE ( 'NONE', *, *, #331, .F. ) ;
#172 = CARTESIAN_POINT ( 'NONE',  ( 0.1999999999999999556, 0.000000000000000000, 0.000000000000000000 ) ) ;
#173 = CARTESIAN_POINT ( 'NONE',  ( 0.000000000000000000, 0.000000000000000000, 0.000000000000000000 ) ) ;
#174 = ORIENTED_EDGE ( 'NONE', *, *, #168, .F. ) ;
#175 = EDGE_CURVE ( 'NONE', #32, #244, #95, .T. ) ;
#176 = CARTESIAN_POINT ( 'NONE',  ( 0.000000000000000000, 0.000000000000000000, 0.000000000000000000 ) ) ;
#177 = CARTESIAN_POINT ( 'NONE',  ( 0.07999999999999984901, 0.000000000000000000, -1.474999999999999867 ) ) ;
#178 = DIRECTION ( 'NONE',  ( 0.000000000000000000, 0.000000000000000000, -1.000000000000000000 ) ) ;
#179 = DIRECTION ( 'NONE',  ( 0.000000000000000000, 0.000000000000000000, -1.000000000000000000 ) ) ;
#180 = PLANE ( 'NONE',  #257 ) ;
#181 = ADVANCED_FACE ( 'NONE', ( #7, #265 ), #262, .F. ) ;
#182 = CIRCLE ( 'NONE', #86, 1.176435935394491095 ) ;
#183 = CARTESIAN_POINT ( 'NONE',  ( 0.1999999999999999833, 0.000000000000000000, 0.9395000000000000018 ) ) ;
#184 = PRESENTATION_STYLE_ASSIGNMENT (( #72 ) ) ;
#185 = CARTESIAN_POINT ( 'NONE',  ( 0.1000000000000000194, 0.000000000000000000, 0.000000000000000000 ) ) ;
#186 = EDGE_CURVE ( 'NONE', #82, #167, #93, .T. ) ;
#187 = DIRECTION ( 'NONE',  ( -1.000000000000000000, 0.000000000000000000, -0.000000000000000000 ) ) ;
#188 = PRESENTATION_STYLE_ASSIGNMENT (( #209 ) ) ;
#189 = UNCERTAINTY_MEASURE_WITH_UNIT (LENGTH_MEASURE( 1.000000000000000082E-05 ), #18, 'distance_accuracy_value', 'NONE');
#190 = ORIENTED_EDGE ( 'NONE', *, *, #61, .T. ) ;
#191 = PRODUCT_DEFINITION_SHAPE ( 'NONE', 'NONE',  #39 ) ;
#192 = ORIENTED_EDGE ( 'NONE', *, *, #186, .T. ) ;
#193 = VERTEX_POINT ( 'NONE', #337 ) ;
#194 = ADVANCED_FACE ( 'NONE', ( #198 ), #309, .F. ) ;
#195 = EDGE_LOOP ( 'NONE', ( #357, #140, #248, #144 ) ) ;
#196 = LINE ( 'NONE', #307, #340 ) ;
#197 = VERTEX_POINT ( 'NONE', #162 ) ;
#198 = FACE_OUTER_BOUND ( 'NONE', #139, .T. ) ;
#199 = CARTESIAN_POINT ( 'NONE',  ( 0.1000000000000000194, 0.000000000000000000, 1.032499999999999973 ) ) ;
#200 = DIRECTION ( 'NONE',  ( -1.000000000000000000, -0.000000000000000000, -0.000000000000000000 ) ) ;
#201 = CARTESIAN_POINT ( 'NONE',  ( 0.1999999999999999278, 1.474999999999999867, 0.000000000000000000 ) ) ;
#202 = AXIS2_PLACEMENT_3D ( 'NONE', #283, #33, #178 ) ;
#203 = DIRECTION ( 'NONE',  ( -1.000000000000000000, -0.000000000000000000, -0.000000000000000000 ) ) ;
#204 = ADVANCED_FACE ( 'NONE', ( #136 ), #13, .F. ) ;
#205 = CARTESIAN_POINT ( 'NONE',  ( 0.1000000000000000194, 1.150555667798938441E-16, -0.9395000000000000018 ) ) ;
#206 = FILL_AREA_STYLE ('',( #286 ) ) ;
#207 = DIRECTION ( 'NONE',  ( 0.000000000000000000, 0.000000000000000000, 1.000000000000000000 ) ) ;
#208 = DIRECTION ( 'NONE',  ( -1.000000000000000000, -0.000000000000000000, -0.000000000000000000 ) ) ;
#209 = SURFACE_STYLE_USAGE ( .BOTH. , #45 ) ;
#210 = EDGE_CURVE ( 'NONE', #260, #167, #158, .T. ) ;
#211 = PLANE ( 'NONE',  #46 ) ;
#212 = AXIS2_PLACEMENT_3D ( 'NONE', #313, #68, #179 ) ;
#213 = COLOUR_RGB ( '',0.6470588235294117974, 0.6196078431372549211, 0.5882352941176470784 ) ;
#214 = ORIENTED_EDGE ( 'NONE', *, *, #234, .F. ) ;
#215 = ADVANCED_BREP_SHAPE_REPRESENTATION ( '712003', ( #103, #329 ), #99 ) ;
#216 = PRODUCT ( '712003', '712003', '', ( #48 ) ) ;
#217 = ORIENTED_EDGE ( 'NONE', *, *, #79, .T. ) ;
#218 = ORIENTED_EDGE ( 'NONE', *, *, #303, .F. ) ;
#219 = ORIENTED_EDGE ( 'NONE', *, *, #79, .F. ) ;
#220 = ADVANCED_FACE ( 'NONE', ( #350, #107 ), #211, .F. ) ;
#221 = ORIENTED_EDGE ( 'NONE', *, *, #303, .T. ) ;
#222 = PRESENTATION_LAYER_ASSIGNMENT (  '', '', ( #118 ) ) ;
#223 = CARTESIAN_POINT ( 'NONE',  ( 0.000000000000000000, 1.623536265712566057E-16, 1.176435935394491095 ) ) ;
#224 = FACE_OUTER_BOUND ( 'NONE', #25, .T. ) ;
#225 = DIRECTION ( 'NONE',  ( -1.000000000000000000, -0.000000000000000000, -0.000000000000000000 ) ) ;
#226 = CARTESIAN_POINT ( 'NONE',  ( 0.000000000000000000, 1.806354028742346048E-16, -1.474999999999999867 ) ) ;
#227 = DIMENSIONAL_EXPONENTS ( 1.000000000000000000, 0.000000000000000000, 0.000000000000000000, 0.000000000000000000, 0.000000000000000000, 0.000000000000000000, 0.000000000000000000 ) ;
#228 = DIRECTION ( 'NONE',  ( 0.000000000000000000, 0.000000000000000000, 1.000000000000000000 ) ) ;
#229 = CARTESIAN_POINT ( 'NONE',  ( 0.1999999999999998446, 0.000000000000000000, 0.000000000000000000 ) ) ;
#230 = CARTESIAN_POINT ( 'NONE',  ( 0.1999999999999999833, 0.000000000000000000, 0.000000000000000000 ) ) ;
#231 = AXIS2_PLACEMENT_3D ( 'NONE', #30, #259, #92 ) ;
#232 = CARTESIAN_POINT ( 'NONE',  ( 0.1999999999999999833, 1.150555667798938441E-16, -0.9395000000000000018 ) ) ;
#233 = LINE ( 'NONE', #306, #155 ) ;
#234 = EDGE_CURVE ( 'NONE', #193, #260, #164, .T. ) ;
#235 = AXIS2_PLACEMENT_3D ( 'NONE', #41, #208, #263 ) ;
#236 = CIRCLE ( 'NONE', #80, 1.032499999999999973 ) ;
#237 = DIRECTION ( 'NONE',  ( 0.000000000000000000, 0.000000000000000000, 1.000000000000000000 ) ) ;
#238 = DIRECTION ( 'NONE',  ( -0.000000000000000000, 0.000000000000000000, 1.000000000000000000 ) ) ;
#239 = DIRECTION ( 'NONE',  ( -1.000000000000000000, -0.000000000000000000, -0.000000000000000000 ) ) ;
#240 = DIRECTION ( 'NONE',  ( -1.000000000000000000, -0.000000000000000000, -0.000000000000000000 ) ) ;
#241 = LENGTH_MEASURE_WITH_UNIT ( LENGTH_MEASURE( 0.02539999999999999897 ), #21 );
#242 = DIRECTION ( 'NONE',  ( 0.000000000000000000, 0.000000000000000000, 1.000000000000000000 ) ) ;
#243 = COLOUR_RGB ( '',0.6470588235294117974, 0.6196078431372549211, 0.5882352941176470784 ) ;
#244 = VERTEX_POINT ( 'NONE', #127 ) ;
#245 = AXIS2_PLACEMENT_3D ( 'NONE', #94, #310, #66 ) ;
#246 = UNCERTAINTY_MEASURE_WITH_UNIT (LENGTH_MEASURE( 1.000000000000000082E-05 ), #101, 'distance_accuracy_value', 'NONE');
#247 = FILL_AREA_STYLE_COLOUR ( '', #213 ) ;
#248 = ORIENTED_EDGE ( 'NONE', *, *, #234, .T. ) ;
#249 = VERTEX_POINT ( 'NONE', #205 ) ;
#250 = EDGE_CURVE ( 'NONE', #53, #114, #142, .T. ) ;
#251 = VECTOR ( 'NONE', #225, 39.37007874015748143 ) ;
#252 = CIRCLE ( 'NONE', #10, 1.474999999999999867 ) ;
#253 = PRODUCT_DEFINITION_FORMATION_WITH_SPECIFIED_SOURCE ( 'ANY', '', #216, .NOT_KNOWN. ) ;
#254 = ORIENTED_EDGE ( 'NONE', *, *, #353, .T. ) ;
#255 = EDGE_LOOP ( 'NONE', ( #304, #258 ) ) ;
#256 = EDGE_CURVE ( 'NONE', #328, #355, #312, .T. ) ;
#257 = AXIS2_PLACEMENT_3D ( 'NONE', #311, #12, #238 ) ;
#258 = ORIENTED_EDGE ( 'NONE', *, *, #300, .F. ) ;
#259 = DIRECTION ( 'NONE',  ( -1.000000000000000000, -0.000000000000000000, -0.000000000000000000 ) ) ;
#260 = VERTEX_POINT ( 'NONE', #199 ) ;
#261 = DIMENSIONAL_EXPONENTS ( 1.000000000000000000, 0.000000000000000000, 0.000000000000000000, 0.000000000000000000, 0.000000000000000000, 0.000000000000000000, 0.000000000000000000 ) ;
#262 = PLANE ( 'NONE',  #356 ) ;
#263 = DIRECTION ( 'NONE',  ( 0.000000000000000000, 0.000000000000000000, 1.000000000000000000 ) ) ;
#264 = FACE_OUTER_BOUND ( 'NONE', #325, .T. ) ;
#265 = FACE_BOUND ( 'NONE', #138, .T. ) ;
#266 = DIRECTION ( 'NONE',  ( 0.000000000000000000, 0.000000000000000000, 1.000000000000000000 ) ) ;
#267 = AXIS2_PLACEMENT_3D ( 'NONE', #230, #341, #38 ) ;
#268 = PRESENTATION_LAYER_ASSIGNMENT (  '', '', ( #59 ) ) ;
#269 = DIRECTION ( 'NONE',  ( -1.000000000000000000, -0.000000000000000000, -0.000000000000000000 ) ) ;
#270 = EDGE_CURVE ( 'NONE', #193, #82, #26, .T. ) ;
#271 = CARTESIAN_POINT ( 'NONE',  ( 0.000000000000000000, 0.000000000000000000, 1.032499999999999973 ) ) ;
#272 = AXIS2_PLACEMENT_3D ( 'NONE', #292, #346, #102 ) ;
#273 = SHAPE_DEFINITION_REPRESENTATION ( #191, #215 ) ;
#274 = ORIENTED_EDGE ( 'NONE', *, *, #168, .T. ) ;
#275 = EDGE_LOOP ( 'NONE', ( #297, #192, #54, #214 ) ) ;
#276 = ORIENTED_EDGE ( 'NONE', *, *, #106, .F. ) ;
#277 = CLOSED_SHELL ( 'NONE', ( #287, #31, #295, #145, #194, #163, #126, #181, #204, #220, #76, #88 ) ) ;
#278 = AXIS2_PLACEMENT_3D ( 'NONE', #345, #157, #228 ) ;
#279 = ORIENTED_EDGE ( 'NONE', *, *, #100, .T. ) ;
#280 = DIRECTION ( 'NONE',  ( -1.000000000000000000, -0.000000000000000000, -0.000000000000000000 ) ) ;
#281 = FACE_OUTER_BOUND ( 'NONE', #115, .T. ) ;
#282 = ORIENTED_EDGE ( 'NONE', *, *, #270, .T. ) ;
#283 = CARTESIAN_POINT ( 'NONE',  ( 0.07999999999999984901, 0.000000000000000000, 0.000000000000000000 ) ) ;
#284 = FACE_OUTER_BOUND ( 'NONE', #24, .T. ) ;
#285 = LINE ( 'NONE', #35, #27 ) ;
#286 = FILL_AREA_STYLE_COLOUR ( '', #243 ) ;
#287 = ADVANCED_FACE ( 'NONE', ( #318 ), #105, .T. ) ;
#288 = CARTESIAN_POINT ( 'NONE',  ( 0.07999999999999984901, 0.000000000000000000, -1.474999999999999867 ) ) ;
#289 = DIRECTION ( 'NONE',  ( -1.000000000000000000, -0.000000000000000000, -0.000000000000000000 ) ) ;
#290 = CIRCLE ( 'NONE', #137, 1.474999999999999867 ) ;
#291 = CARTESIAN_POINT ( 'NONE',  ( 0.000000000000000000, 0.000000000000000000, 0.000000000000000000 ) ) ;
#292 = CARTESIAN_POINT ( 'NONE',  ( 0.000000000000000000, 0.000000000000000000, 0.000000000000000000 ) ) ;
#293 = APPLICATION_CONTEXT ( 'automotive_design' ) ;
#294 = DIRECTION ( 'NONE',  ( -1.000000000000000000, -0.000000000000000000, -0.000000000000000000 ) ) ;
#295 = ADVANCED_FACE ( 'NONE', ( #3 ), #75, .T. ) ;
#296 = VECTOR ( 'NONE', #289, 39.37007874015748143 ) ;
#297 = ORIENTED_EDGE ( 'NONE', *, *, #61, .F. ) ;
#298 = AXIS2_PLACEMENT_3D ( 'NONE', #4, #200, #42 ) ;
#299 = EDGE_LOOP ( 'NONE', ( #19, #22 ) ) ;
#300 = EDGE_CURVE ( 'NONE', #167, #260, #236, .T. ) ;
#301 = VERTEX_POINT ( 'NONE', #124 ) ;
#302 = ORIENTED_EDGE ( 'NONE', *, *, #349, .T. ) ;
#303 = EDGE_CURVE ( 'NONE', #32, #301, #143, .T. ) ;
#304 = ORIENTED_EDGE ( 'NONE', *, *, #210, .F. ) ;
#305 = DIRECTION ( 'NONE',  ( 0.000000000000000000, 0.000000000000000000, 1.000000000000000000 ) ) ;
#306 = CARTESIAN_POINT ( 'NONE',  ( 0.000000000000000000, 0.000000000000000000, 0.9395000000000000018 ) ) ;
#307 = CARTESIAN_POINT ( 'NONE',  ( 0.000000000000000000, 1.150555667798938441E-16, -0.9395000000000000018 ) ) ;
#308 =( NAMED_UNIT ( * ) SI_UNIT ( $, .STERADIAN. ) SOLID_ANGLE_UNIT ( ) );
#309 = PLANE ( 'NONE',  #109 ) ;
#310 = DIRECTION ( 'NONE',  ( -1.000000000000000000, -0.000000000000000000, -0.000000000000000000 ) ) ;
#311 = CARTESIAN_POINT ( 'NONE',  ( 0.1999999999999999833, 0.9395000000000000018, 0.000000000000000000 ) ) ;
#312 = CIRCLE ( 'NONE', #343, 0.9395000000000000018 ) ;
#313 = CARTESIAN_POINT ( 'NONE',  ( 0.07999999999999984901, 0.000000000000000000, 0.000000000000000000 ) ) ;
#314 = CYLINDRICAL_SURFACE ( 'NONE', #231, 1.474999999999999867 ) ;
#315 = CARTESIAN_POINT ( 'NONE',  ( 0.1999999999999999833, 0.000000000000000000, 0.000000000000000000 ) ) ;
#316 = SURFACE_SIDE_STYLE ('',( #36 ) ) ;
#317 = CIRCLE ( 'NONE', #298, 0.9395000000000000018 ) ;
#318 = FACE_OUTER_BOUND ( 'NONE', #336, .T. ) ;
#319 = CARTESIAN_POINT ( 'NONE',  ( 0.000000000000000000, 0.000000000000000000, 0.000000000000000000 ) ) ;
#320 = CARTESIAN_POINT ( 'NONE',  ( 0.000000000000000000, 0.000000000000000000, 0.000000000000000000 ) ) ;
#321 = CARTESIAN_POINT ( 'NONE',  ( 0.1000000000000000194, 1.032499999999999973, 0.000000000000000000 ) ) ;
#322 = EDGE_CURVE ( 'NONE', #249, #197, #43, .T. ) ;
#323 =( GEOMETRIC_REPRESENTATION_CONTEXT ( 3 ) GLOBAL_UNCERTAINTY_ASSIGNED_CONTEXT ( ( #189 ) ) GLOBAL_UNIT_ASSIGNED_CONTEXT ( ( #18, #51, #111 ) ) REPRESENTATION_CONTEXT ( 'NONE', 'WORKASPACE' ) );
#324 = AXIS2_PLACEMENT_3D ( 'NONE', #291, #74, #266 ) ;
#325 = EDGE_LOOP ( 'NONE', ( #174, #352 ) ) ;
#326 = UNCERTAINTY_MEASURE_WITH_UNIT (LENGTH_MEASURE( 1.000000000000000082E-05 ), #5, 'distance_accuracy_value', 'NONE');
#327 = ORIENTED_EDGE ( 'NONE', *, *, #106, .T. ) ;
#328 = VERTEX_POINT ( 'NONE', #232 ) ;
#329 = AXIS2_PLACEMENT_3D ( 'NONE', #320, #81, #15 ) ;
#330 = ORIENTED_EDGE ( 'NONE', *, *, #353, .F. ) ;
#331 = EDGE_CURVE ( 'NONE', #301, #166, #11, .T. ) ;
#332 = ORIENTED_EDGE ( 'NONE', *, *, #49, .F. ) ;
#333 = AXIS2_PLACEMENT_3D ( 'NONE', #229, #67, #70 ) ;
#334 = CARTESIAN_POINT ( 'NONE',  ( 0.07999999999999984901, 0.000000000000000000, 0.000000000000000000 ) ) ;
#335 =( NAMED_UNIT ( * ) PLANE_ANGLE_UNIT ( ) SI_UNIT ( $, .RADIAN. ) );
#336 = EDGE_LOOP ( 'NONE', ( #274, #150, #219, #276 ) ) ;
#337 = CARTESIAN_POINT ( 'NONE',  ( 0.1999999999999999556, 0.000000000000000000, 1.032499999999999973 ) ) ;
#338 = DIRECTION ( 'NONE',  ( -1.000000000000000000, -0.000000000000000000, -0.000000000000000000 ) ) ;
#339 = DIRECTION ( 'NONE',  ( 0.000000000000000000, 0.000000000000000000, 1.000000000000000000 ) ) ;
#340 = VECTOR ( 'NONE', #123, 39.37007874015748143 ) ;
#341 = DIRECTION ( 'NONE',  ( -1.000000000000000000, -0.000000000000000000, -0.000000000000000000 ) ) ;
#342 = CARTESIAN_POINT ( 'NONE',  ( 0.1999999999999998446, 0.000000000000000000, 1.474999999999999867 ) ) ;
#343 = AXIS2_PLACEMENT_3D ( 'NONE', #315, #160, #339 ) ;
#344 = AXIS2_PLACEMENT_3D ( 'NONE', #40, #269, #207 ) ;
#345 = CARTESIAN_POINT ( 'NONE',  ( 0.1999999999999998446, 0.000000000000000000, 0.000000000000000000 ) ) ;
#346 = DIRECTION ( 'NONE',  ( -1.000000000000000000, -0.000000000000000000, -0.000000000000000000 ) ) ;
#347 = CARTESIAN_POINT ( 'NONE',  ( 0.07999999999999984901, 0.000000000000000000, 0.000000000000000000 ) ) ;
#348 = DIRECTION ( 'NONE',  ( 1.000000000000000000, 0.000000000000000000, 0.000000000000000000 ) ) ;
#349 = EDGE_CURVE ( 'NONE', #114, #244, #285, .T. ) ;
#350 = FACE_OUTER_BOUND ( 'NONE', #255, .T. ) ;
#351 = DIRECTION ( 'NONE',  ( -1.000000000000000000, -0.000000000000000000, -0.000000000000000000 ) ) ;
#352 = ORIENTED_EDGE ( 'NONE', *, *, #256, .F. ) ;
#353 = EDGE_CURVE ( 'NONE', #166, #244, #252, .T. ) ;
#354 = ORIENTED_EDGE ( 'NONE', *, *, #256, .T. ) ;
#355 = VERTEX_POINT ( 'NONE', #183 ) ;
#356 = AXIS2_PLACEMENT_3D ( 'NONE', #201, #128, #122 ) ;
#357 = ORIENTED_EDGE ( 'NONE', *, *, #186, .F. ) ;
#358 = CYLINDRICAL_SURFACE ( 'NONE', #147, 1.032499999999999973 ) ;
#359 = LINE ( 'NONE', #226, #6 ) ;
ENDSEC;
END-ISO-10303-21;
