ISO-10303-21;
HEADER;
FILE_DESCRIPTION (( 'STEP AP214' ),
    '1' );
FILE_NAME ('713007.STEP',
    '2023-12-30T08:59:48',
    ( '' ),
    ( '' ),
    'SwSTEP 2.0',
    'SolidWorks 2022',
    '' );
FILE_SCHEMA (( 'AUTOMOTIVE_DESIGN' ));
ENDSEC;

DATA;
#1 = PRODUCT_DEFINITION_FORMATION_WITH_SPECIFIED_SOURCE ( 'ANY', '', #164, .NOT_KNOWN. ) ;
#2 = CARTESIAN_POINT ( 'NONE',  ( 4.194415287079684691E-17, 0.000000000000000000, -0.3424999999999999711 ) ) ;
#3 = CIRCLE ( 'NONE', #101, 0.4257897644669650927 ) ;
#4 = DIRECTION ( 'NONE',  ( -0.000000000000000000, 1.000000000000000000, -0.000000000000000000 ) ) ;
#5 = APPLICATION_CONTEXT ( 'automotive_design' ) ;
#6 = ORIENTED_EDGE ( 'NONE', *, *, #227, .F. ) ;
#7 = FACE_OUTER_BOUND ( 'NONE', #80, .T. ) ;
#8 = EDGE_LOOP ( 'NONE', ( #316, #6, #337, #331 ) ) ;
#9 = ADVANCED_FACE ( 'NONE', ( #81, #46 ), #345, .F. ) ;
#10 = PLANE ( 'NONE',  #93 ) ;
#11 = VERTEX_POINT ( 'NONE', #320 ) ;
#12 = UNCERTAINTY_MEASURE_WITH_UNIT (LENGTH_MEASURE( 1.000000000000000082E-05 ), #280, 'distance_accuracy_value', 'NONE');
#13 = AXIS2_PLACEMENT_3D ( 'NONE', #118, #223, #303 ) ;
#14 =( GEOMETRIC_REPRESENTATION_CONTEXT ( 3 ) GLOBAL_UNCERTAINTY_ASSIGNED_CONTEXT ( ( #92 ) ) GLOBAL_UNIT_ASSIGNED_CONTEXT ( ( #153, #134, #154 ) ) REPRESENTATION_CONTEXT ( 'NONE', 'WORKASPACE' ) );
#15 = DIRECTION ( 'NONE',  ( -0.000000000000000000, 1.000000000000000000, -0.000000000000000000 ) ) ;
#16 = ORIENTED_EDGE ( 'NONE', *, *, #212, .F. ) ;
#17 = CARTESIAN_POINT ( 'NONE',  ( 0.000000000000000000, -1.516480271171051896E-32, 0.5899999999999999689 ) ) ;
#18 = VERTEX_POINT ( 'NONE', #151 ) ;
#19 = CIRCLE ( 'NONE', #41, 0.5899999999999999689 ) ;
#20 = FILL_AREA_STYLE_COLOUR ( '', #141 ) ;
#21 = EDGE_CURVE ( 'NONE', #11, #231, #82, .T. ) ;
#22 = APPLICATION_PROTOCOL_DEFINITION ( 'draft international standard', 'automotive_design', 1998, #5 ) ;
#23 = DIRECTION ( 'NONE',  ( -0.000000000000000000, 1.000000000000000000, -0.000000000000000000 ) ) ;
#24 =( CONVERSION_BASED_UNIT ( 'INCH', #240 ) LENGTH_UNIT ( ) NAMED_UNIT ( #186 ) );
#25 = VECTOR ( 'NONE', #158, 39.37007874015748143 ) ;
#26 = PRESENTATION_LAYER_ASSIGNMENT (  '', '', ( #302 ) ) ;
#27 = ADVANCED_FACE ( 'NONE', ( #346 ), #289, .F. ) ;
#28 = DIRECTION ( 'NONE',  ( -0.000000000000000000, 1.000000000000000000, -0.000000000000000000 ) ) ;
#29 = CARTESIAN_POINT ( 'NONE',  ( 0.000000000000000000, -0.1240000000000000130, 0.000000000000000000 ) ) ;
#30 = DIRECTION ( 'NONE',  ( 0.000000000000000000, 0.000000000000000000, 1.000000000000000000 ) ) ;
#31 = DIRECTION ( 'NONE',  ( -0.000000000000000000, 1.000000000000000000, -0.000000000000000000 ) ) ;
#32 = AXIS2_PLACEMENT_3D ( 'NONE', #246, #352, #166 ) ;
#33 = DIRECTION ( 'NONE',  ( -0.000000000000000000, 1.000000000000000000, -0.000000000000000000 ) ) ;
#34 = CARTESIAN_POINT ( 'NONE',  ( 7.225416114969383947E-17, 0.000000000000000000, -0.5899999999999999689 ) ) ;
#35 = EDGE_LOOP ( 'NONE', ( #42, #338, #96, #100 ) ) ;
#36 = EDGE_CURVE ( 'NONE', #225, #312, #3, .T. ) ;
#37 = ORIENTED_EDGE ( 'NONE', *, *, #117, .F. ) ;
#38 = FACE_OUTER_BOUND ( 'NONE', #343, .T. ) ;
#39 = ORIENTED_EDGE ( 'NONE', *, *, #238, .F. ) ;
#40 = DIRECTION ( 'NONE',  ( -0.000000000000000000, 1.000000000000000000, 0.000000000000000000 ) ) ;
#41 = AXIS2_PLACEMENT_3D ( 'NONE', #332, #330, #206 ) ;
#42 = ORIENTED_EDGE ( 'NONE', *, *, #298, .F. ) ;
#43 = VECTOR ( 'NONE', #23, 39.37007874015748143 ) ;
#44 = ORIENTED_EDGE ( 'NONE', *, *, #90, .F. ) ;
#45 = APPLICATION_PROTOCOL_DEFINITION ( 'draft international standard', 'automotive_design', 1998, #63 ) ;
#46 = FACE_BOUND ( 'NONE', #144, .T. ) ;
#47 = FILL_AREA_STYLE ('',( #20 ) ) ;
#48 = AXIS2_PLACEMENT_3D ( 'NONE', #274, #271, #30 ) ;
#49 = SURFACE_SIDE_STYLE ('',( #132 ) ) ;
#50 = EDGE_CURVE ( 'NONE', #261, #205, #51, .T. ) ;
#51 = LINE ( 'NONE', #155, #25 ) ;
#52 = PRODUCT_CONTEXT ( 'NONE', #5, 'mechanical' ) ;
#53 = CIRCLE ( 'NONE', #295, 0.4257897644669650927 ) ;
#54 = DIRECTION ( 'NONE',  ( -0.000000000000000000, 1.000000000000000000, -0.000000000000000000 ) ) ;
#55 = CIRCLE ( 'NONE', #279, 0.3424999999999999711 ) ;
#56 = CARTESIAN_POINT ( 'NONE',  ( 0.000000000000000000, -0.1640000000000000069, 0.4257897644669650927 ) ) ;
#57 = FILL_AREA_STYLE_COLOUR ( '', #340 ) ;
#58 = FACE_OUTER_BOUND ( 'NONE', #8, .T. ) ;
#59 = DIRECTION ( 'NONE',  ( -0.000000000000000000, 1.000000000000000000, -0.000000000000000000 ) ) ;
#60 = CARTESIAN_POINT ( 'NONE',  ( 0.000000000000000000, 0.000000000000000000, 0.3424999999999999711 ) ) ;
#61 = LINE ( 'NONE', #128, #208 ) ;
#62 = EDGE_CURVE ( 'NONE', #312, #225, #53, .T. ) ;
#63 = APPLICATION_CONTEXT ( 'automotive_design' ) ;
#64 = VECTOR ( 'NONE', #15, 39.37007874015748143 ) ;
#65 = FACE_BOUND ( 'NONE', #233, .T. ) ;
#66 = ORIENTED_EDGE ( 'NONE', *, *, #304, .F. ) ;
#67 = DIRECTION ( 'NONE',  ( 0.000000000000000000, 0.000000000000000000, 1.000000000000000000 ) ) ;
#68 = ORIENTED_EDGE ( 'NONE', *, *, #272, .T. ) ;
#69 = LINE ( 'NONE', #197, #64 ) ;
#70 = EDGE_LOOP ( 'NONE', ( #44, #123, #207, #181 ) ) ;
#71 = CARTESIAN_POINT ( 'NONE',  ( 0.000000000000000000, -0.1240000000000000269, 0.000000000000000000 ) ) ;
#72 =( GEOMETRIC_REPRESENTATION_CONTEXT ( 3 ) GLOBAL_UNCERTAINTY_ASSIGNED_CONTEXT ( ( #12 ) ) GLOBAL_UNIT_ASSIGNED_CONTEXT ( ( #280, #310, #285 ) ) REPRESENTATION_CONTEXT ( 'NONE', 'WORKASPACE' ) );
#73 = ORIENTED_EDGE ( 'NONE', *, *, #90, .T. ) ;
#74 = PRESENTATION_STYLE_ASSIGNMENT (( #99 ) ) ;
#75 = MANIFOLD_SOLID_BREP ( 'Revolve1', #195 ) ;
#76 = CONICAL_SURFACE ( 'NONE', #161, 0.4257897644669650927, 1.308996938995753645 ) ;
#77 = ADVANCED_BREP_SHAPE_REPRESENTATION ( '713007', ( #75, #313 ), #72 ) ;
#78 = ORIENTED_EDGE ( 'NONE', *, *, #36, .T. ) ;
#79 = AXIS2_PLACEMENT_3D ( 'NONE', #254, #40, #282 ) ;
#80 = EDGE_LOOP ( 'NONE', ( #259, #214 ) ) ;
#81 = FACE_OUTER_BOUND ( 'NONE', #239, .T. ) ;
#82 = LINE ( 'NONE', #315, #43 ) ;
#83 = VECTOR ( 'NONE', #188, 39.37007874015748143 ) ;
#84 = SHAPE_DEFINITION_REPRESENTATION ( #182, #77 ) ;
#85 = CARTESIAN_POINT ( 'NONE',  ( 0.000000000000000000, 0.000000000000000000, 0.5899999999999999689 ) ) ;
#86 = CARTESIAN_POINT ( 'NONE',  ( 0.000000000000000000, -0.1640000000000000069, 0.000000000000000000 ) ) ;
#87 = FACE_OUTER_BOUND ( 'NONE', #176, .T. ) ;
#88 = CIRCLE ( 'NONE', #350, 0.3425000000000000266 ) ;
#89 = CARTESIAN_POINT ( 'NONE',  ( 0.000000000000000000, -1.516480271171051896E-32, 0.000000000000000000 ) ) ;
#90 = EDGE_CURVE ( 'NONE', #312, #171, #267, .T. ) ;
#91 = CYLINDRICAL_SURFACE ( 'NONE', #327, 0.5899999999999999689 ) ;
#92 = UNCERTAINTY_MEASURE_WITH_UNIT (LENGTH_MEASURE( 1.000000000000000082E-05 ), #153, 'distance_accuracy_value', 'NONE');
#93 = AXIS2_PLACEMENT_3D ( 'NONE', #232, #202, #170 ) ;
#94 = ORIENTED_EDGE ( 'NONE', *, *, #36, .F. ) ;
#95 = CARTESIAN_POINT ( 'NONE',  ( 4.194415287079685308E-17, -0.1240000000000000269, -0.3425000000000000266 ) ) ;
#96 = ORIENTED_EDGE ( 'NONE', *, *, #238, .T. ) ;
#97 = LENGTH_MEASURE_WITH_UNIT ( LENGTH_MEASURE( 0.02539999999999999897 ), #145 );
#98 = ORIENTED_EDGE ( 'NONE', *, *, #112, .F. ) ;
#99 = SURFACE_STYLE_USAGE ( .BOTH. , #190 ) ;
#100 = ORIENTED_EDGE ( 'NONE', *, *, #344, .F. ) ;
#101 = AXIS2_PLACEMENT_3D ( 'NONE', #107, #291, #263 ) ;
#102 = CIRCLE ( 'NONE', #235, 0.5899999999999999689 ) ;
#103 = DIRECTION ( 'NONE',  ( 0.000000000000000000, 0.000000000000000000, 1.000000000000000000 ) ) ;
#104 = DIRECTION ( 'NONE',  ( 0.000000000000000000, 0.000000000000000000, 1.000000000000000000 ) ) ;
#105 = EDGE_LOOP ( 'NONE', ( #150, #339 ) ) ;
#106 = DIRECTION ( 'NONE',  ( 0.000000000000000000, 0.000000000000000000, 1.000000000000000000 ) ) ;
#107 = CARTESIAN_POINT ( 'NONE',  ( 0.000000000000000000, -0.1640000000000000069, 0.000000000000000000 ) ) ;
#108 = DIRECTION ( 'NONE',  ( 0.000000000000000000, 0.000000000000000000, 1.000000000000000000 ) ) ;
#109 = CIRCLE ( 'NONE', #48, 0.3799999999999999489 ) ;
#110 =( NAMED_UNIT ( * ) SI_UNIT ( $, .STERADIAN. ) SOLID_ANGLE_UNIT ( ) );
#111 = DIRECTION ( 'NONE',  ( 0.000000000000000000, 0.000000000000000000, 1.000000000000000000 ) ) ;
#112 = EDGE_CURVE ( 'NONE', #225, #210, #221, .T. ) ;
#113 = ADVANCED_FACE ( 'NONE', ( #87 ), #251, .F. ) ;
#114 = CARTESIAN_POINT ( 'NONE',  ( 0.000000000000000000, -0.1640000000000000069, 0.000000000000000000 ) ) ;
#115 = FACE_OUTER_BOUND ( 'NONE', #309, .T. ) ;
#116 =( GEOMETRIC_REPRESENTATION_CONTEXT ( 3 ) GLOBAL_UNCERTAINTY_ASSIGNED_CONTEXT ( ( #307 ) ) GLOBAL_UNIT_ASSIGNED_CONTEXT ( ( #24, #317, #110 ) ) REPRESENTATION_CONTEXT ( 'NONE', 'WORKASPACE' ) );
#117 = EDGE_CURVE ( 'NONE', #178, #231, #157, .T. ) ;
#118 = CARTESIAN_POINT ( 'NONE',  ( 0.000000000000000000, 0.000000000000000000, 0.000000000000000000 ) ) ;
#119 = DIRECTION ( 'NONE',  ( 0.000000000000000000, 0.000000000000000000, 1.000000000000000000 ) ) ;
#120 = LINE ( 'NONE', #34, #264 ) ;
#121 = EDGE_LOOP ( 'NONE', ( #257, #131, #146, #281 ) ) ;
#122 = DIRECTION ( 'NONE',  ( 0.000000000000000000, 0.000000000000000000, 1.000000000000000000 ) ) ;
#123 = ORIENTED_EDGE ( 'NONE', *, *, #62, .T. ) ;
#124 = VECTOR ( 'NONE', #326, 39.37007874015748143 ) ;
#125 = ADVANCED_FACE ( 'NONE', ( #115 ), #76, .T. ) ;
#126 = CARTESIAN_POINT ( 'NONE',  ( 0.000000000000000000, -0.1199999999999999956, 0.000000000000000000 ) ) ;
#127 = ORIENTED_EDGE ( 'NONE', *, *, #62, .F. ) ;
#128 = CARTESIAN_POINT ( 'NONE',  ( 0.000000000000000000, 0.000000000000000000, 0.3424999999999999711 ) ) ;
#129 = EDGE_LOOP ( 'NONE', ( #314, #203, #234, #286 ) ) ;
#130 = ORIENTED_EDGE ( 'NONE', *, *, #147, .F. ) ;
#131 = ORIENTED_EDGE ( 'NONE', *, *, #175, .T. ) ;
#132 = SURFACE_STYLE_FILL_AREA ( #47 ) ;
#133 = AXIS2_PLACEMENT_3D ( 'NONE', #308, #168, #119 ) ;
#134 =( NAMED_UNIT ( * ) PLANE_ANGLE_UNIT ( ) SI_UNIT ( $, .RADIAN. ) );
#135 = CARTESIAN_POINT ( 'NONE',  ( 0.000000000000000000, -0.1240000000000000269, 0.000000000000000000 ) ) ;
#136 = DIRECTION ( 'NONE',  ( 0.000000000000000000, 0.2588190451025145222, 0.9659258262890699775 ) ) ;
#137 = CONICAL_SURFACE ( 'NONE', #169, 0.4257897644669650927, 1.308996938995753645 ) ;
#138 = CARTESIAN_POINT ( 'NONE',  ( 0.000000000000000000, 0.000000000000000000, 0.000000000000000000 ) ) ;
#139 = DIRECTION ( 'NONE',  ( -0.000000000000000000, 1.000000000000000000, -0.000000000000000000 ) ) ;
#140 = CARTESIAN_POINT ( 'NONE',  ( 7.225416114969383947E-17, -0.1199999999999999956, -0.5899999999999999689 ) ) ;
#141 = COLOUR_RGB ( '',0.6470588235294117974, 0.6196078431372549211, 0.5882352941176470784 ) ;
#142 = CARTESIAN_POINT ( 'NONE',  ( 0.000000000000000000, -0.1240000000000000269, 0.3425000000000000266 ) ) ;
#143 = ORIENTED_EDGE ( 'NONE', *, *, #304, .T. ) ;
#144 = EDGE_LOOP ( 'NONE', ( #68, #262 ) ) ;
#145 =( LENGTH_UNIT ( ) NAMED_UNIT ( * ) SI_UNIT ( $, .METRE. ) );
#146 = ORIENTED_EDGE ( 'NONE', *, *, #213, .T. ) ;
#147 = EDGE_CURVE ( 'NONE', #205, #149, #55, .T. ) ;
#148 = CARTESIAN_POINT ( 'NONE',  ( 7.225416114969383947E-17, -1.516480271171051896E-32, -0.5899999999999999689 ) ) ;
#149 = VERTEX_POINT ( 'NONE', #60 ) ;
#150 = ORIENTED_EDGE ( 'NONE', *, *, #227, .T. ) ;
#151 = CARTESIAN_POINT ( 'NONE',  ( 0.000000000000000000, -0.1640000000000000069, 0.3799999999999999489 ) ) ;
#152 = AXIS2_PLACEMENT_3D ( 'NONE', #126, #204, #224 ) ;
#153 =( CONVERSION_BASED_UNIT ( 'INCH', #288 ) LENGTH_UNIT ( ) NAMED_UNIT ( #156 ) );
#154 =( NAMED_UNIT ( * ) SI_UNIT ( $, .STERADIAN. ) SOLID_ANGLE_UNIT ( ) );
#155 = CARTESIAN_POINT ( 'NONE',  ( 4.194415287079684691E-17, 0.000000000000000000, -0.3424999999999999711 ) ) ;
#156 = DIMENSIONAL_EXPONENTS ( 1.000000000000000000, 0.000000000000000000, 0.000000000000000000, 0.000000000000000000, 0.000000000000000000, 0.000000000000000000, 0.000000000000000000 ) ;
#157 = CIRCLE ( 'NONE', #311, 0.3799999999999999489 ) ;
#158 = DIRECTION ( 'NONE',  ( -0.000000000000000000, 1.000000000000000000, -0.000000000000000000 ) ) ;
#159 = MECHANICAL_DESIGN_GEOMETRIC_PRESENTATION_REPRESENTATION (  '', ( #241 ), #116 ) ;
#160 = CARTESIAN_POINT ( 'NONE',  ( 0.000000000000000000, -0.1240000000000000130, 0.3799999999999999489 ) ) ;
#161 = AXIS2_PLACEMENT_3D ( 'NONE', #114, #139, #300 ) ;
#162 = FILL_AREA_STYLE ('',( #57 ) ) ;
#163 = CARTESIAN_POINT ( 'NONE',  ( 0.000000000000000000, 0.000000000000000000, 0.000000000000000000 ) ) ;
#164 = PRODUCT ( '713007', '713007', '', ( #52 ) ) ;
#165 = DIRECTION ( 'NONE',  ( 0.000000000000000000, 0.000000000000000000, 1.000000000000000000 ) ) ;
#166 = DIRECTION ( 'NONE',  ( 0.000000000000000000, 0.000000000000000000, 1.000000000000000000 ) ) ;
#167 = DIRECTION ( 'NONE',  ( -0.000000000000000000, 1.000000000000000000, -0.000000000000000000 ) ) ;
#168 = DIRECTION ( 'NONE',  ( -0.000000000000000000, 1.000000000000000000, -0.000000000000000000 ) ) ;
#169 = AXIS2_PLACEMENT_3D ( 'NONE', #86, #247, #165 ) ;
#170 = DIRECTION ( 'NONE',  ( 0.000000000000000000, -0.000000000000000000, -1.000000000000000000 ) ) ;
#171 = VERTEX_POINT ( 'NONE', #140 ) ;
#172 = PRODUCT_DEFINITION_CONTEXT ( 'detailed design', #63, 'design' ) ;
#173 = ADVANCED_FACE ( 'NONE', ( #58 ), #297, .F. ) ;
#174 = CARTESIAN_POINT ( 'NONE',  ( 0.000000000000000000, 0.000000000000000000, 0.000000000000000000 ) ) ;
#175 = EDGE_CURVE ( 'NONE', #171, #210, #191, .T. ) ;
#176 = EDGE_LOOP ( 'NONE', ( #236, #278, #216, #199 ) ) ;
#177 = DIRECTION ( 'NONE',  ( -0.000000000000000000, 1.000000000000000000, -0.000000000000000000 ) ) ;
#178 = VERTEX_POINT ( 'NONE', #160 ) ;
#179 = CIRCLE ( 'NONE', #189, 0.3425000000000000266 ) ;
#180 = AXIS2_PLACEMENT_3D ( 'NONE', #185, #287, #103 ) ;
#181 = ORIENTED_EDGE ( 'NONE', *, *, #175, .F. ) ;
#182 = PRODUCT_DEFINITION_SHAPE ( 'NONE', 'NONE',  #265 ) ;
#183 = DIRECTION ( 'NONE',  ( -0.000000000000000000, 1.000000000000000000, -0.000000000000000000 ) ) ;
#184 = CIRCLE ( 'NONE', #133, 0.3799999999999999489 ) ;
#185 = CARTESIAN_POINT ( 'NONE',  ( 0.000000000000000000, 0.000000000000000000, 0.000000000000000000 ) ) ;
#186 = DIMENSIONAL_EXPONENTS ( 1.000000000000000000, 0.000000000000000000, 0.000000000000000000, 0.000000000000000000, 0.000000000000000000, 0.000000000000000000, 0.000000000000000000 ) ;
#187 = CARTESIAN_POINT ( 'NONE',  ( 0.4257897644669650927, -0.1640000000000000069, 0.000000000000000000 ) ) ;
#188 = DIRECTION ( 'NONE',  ( -0.000000000000000000, 1.000000000000000000, -0.000000000000000000 ) ) ;
#189 = AXIS2_PLACEMENT_3D ( 'NONE', #135, #167, #111 ) ;
#190 = SURFACE_SIDE_STYLE ('',( #321 ) ) ;
#191 = CIRCLE ( 'NONE', #323, 0.5899999999999999689 ) ;
#192 = DIRECTION ( 'NONE',  ( -0.000000000000000000, 1.000000000000000000, -0.000000000000000000 ) ) ;
#193 = CYLINDRICAL_SURFACE ( 'NONE', #200, 0.3424999999999999711 ) ;
#194 = DIRECTION ( 'NONE',  ( 0.000000000000000000, 0.000000000000000000, 1.000000000000000000 ) ) ;
#195 = CLOSED_SHELL ( 'NONE', ( #27, #125, #217, #226, #173, #348, #324, #237, #9, #113, #299 ) ) ;
#196 = CYLINDRICAL_SURFACE ( 'NONE', #229, 0.5899999999999999689 ) ;
#197 = CARTESIAN_POINT ( 'NONE',  ( 0.000000000000000000, 0.000000000000000000, 0.3799999999999999489 ) ) ;
#198 = FACE_BOUND ( 'NONE', #105, .T. ) ;
#199 = ORIENTED_EDGE ( 'NONE', *, *, #117, .T. ) ;
#200 = AXIS2_PLACEMENT_3D ( 'NONE', #138, #28, #347 ) ;
#201 = EDGE_CURVE ( 'NONE', #244, #242, #102, .T. ) ;
#202 = DIRECTION ( 'NONE',  ( 0.000000000000000000, -1.000000000000000000, 0.000000000000000000 ) ) ;
#203 = ORIENTED_EDGE ( 'NONE', *, *, #50, .T. ) ;
#204 = DIRECTION ( 'NONE',  ( -0.000000000000000000, 1.000000000000000000, -0.000000000000000000 ) ) ;
#205 = VERTEX_POINT ( 'NONE', #2 ) ;
#206 = DIRECTION ( 'NONE',  ( 0.000000000000000000, 0.000000000000000000, 1.000000000000000000 ) ) ;
#207 = ORIENTED_EDGE ( 'NONE', *, *, #112, .T. ) ;
#208 = VECTOR ( 'NONE', #336, 39.37007874015748143 ) ;
#209 = ORIENTED_EDGE ( 'NONE', *, *, #213, .F. ) ;
#210 = VERTEX_POINT ( 'NONE', #268 ) ;
#211 =( LENGTH_UNIT ( ) NAMED_UNIT ( * ) SI_UNIT ( $, .METRE. ) );
#212 = EDGE_CURVE ( 'NONE', #149, #205, #250, .T. ) ;
#213 = EDGE_CURVE ( 'NONE', #210, #242, #329, .T. ) ;
#214 = ORIENTED_EDGE ( 'NONE', *, *, #201, .T. ) ;
#215 = SURFACE_STYLE_USAGE ( .BOTH. , #49 ) ;
#216 = ORIENTED_EDGE ( 'NONE', *, *, #344, .T. ) ;
#217 = ADVANCED_FACE ( 'NONE', ( #245 ), #196, .T. ) ;
#218 = DIRECTION ( 'NONE',  ( 1.000000000000000000, 0.000000000000000000, 0.000000000000000000 ) ) ;
#219 = CARTESIAN_POINT ( 'NONE',  ( 0.000000000000000000, 0.000000000000000000, 0.000000000000000000 ) ) ;
#220 = CARTESIAN_POINT ( 'NONE',  ( 4.653657836759941744E-17, -0.1240000000000000130, -0.3799999999999999489 ) ) ;
#221 = LINE ( 'NONE', #353, #319 ) ;
#222 = CARTESIAN_POINT ( 'NONE',  ( 0.000000000000000000, 0.000000000000000000, 0.000000000000000000 ) ) ;
#223 = DIRECTION ( 'NONE',  ( -0.000000000000000000, 1.000000000000000000, -0.000000000000000000 ) ) ;
#224 = DIRECTION ( 'NONE',  ( 0.000000000000000000, 0.000000000000000000, 1.000000000000000000 ) ) ;
#225 = VERTEX_POINT ( 'NONE', #56 ) ;
#226 = ADVANCED_FACE ( 'NONE', ( #296 ), #193, .F. ) ;
#227 = EDGE_CURVE ( 'NONE', #255, #261, #179, .T. ) ;
#228 = ORIENTED_EDGE ( 'NONE', *, *, #283, .T. ) ;
#229 = AXIS2_PLACEMENT_3D ( 'NONE', #163, #31, #270 ) ;
#230 = CARTESIAN_POINT ( 'NONE',  ( 0.000000000000000000, -0.1640000000000000069, 0.000000000000000000 ) ) ;
#231 = VERTEX_POINT ( 'NONE', #220 ) ;
#232 = CARTESIAN_POINT ( 'NONE',  ( 0.3424999999999999711, -7.582401355855259480E-33, 0.000000000000000000 ) ) ;
#233 = EDGE_LOOP ( 'NONE', ( #16, #130 ) ) ;
#234 = ORIENTED_EDGE ( 'NONE', *, *, #147, .T. ) ;
#235 = AXIS2_PLACEMENT_3D ( 'NONE', #89, #59, #108 ) ;
#236 = ORIENTED_EDGE ( 'NONE', *, *, #21, .F. ) ;
#237 = ADVANCED_FACE ( 'NONE', ( #325 ), #137, .T. ) ;
#238 = EDGE_CURVE ( 'NONE', #231, #178, #109, .T. ) ;
#239 = EDGE_LOOP ( 'NONE', ( #94, #127 ) ) ;
#240 = LENGTH_MEASURE_WITH_UNIT ( LENGTH_MEASURE( 0.02539999999999999897 ), #294 );
#241 = STYLED_ITEM ( 'NONE', ( #74 ), #77 ) ;
#242 = VERTEX_POINT ( 'NONE', #17 ) ;
#243 = EDGE_CURVE ( 'NONE', #255, #149, #61, .T. ) ;
#244 = VERTEX_POINT ( 'NONE', #148 ) ;
#245 = FACE_OUTER_BOUND ( 'NONE', #266, .T. ) ;
#246 = CARTESIAN_POINT ( 'NONE',  ( 0.000000000000000000, 0.000000000000000000, 0.000000000000000000 ) ) ;
#247 = DIRECTION ( 'NONE',  ( -0.000000000000000000, 1.000000000000000000, -0.000000000000000000 ) ) ;
#248 = PRODUCT_RELATED_PRODUCT_CATEGORY ( 'part', '', ( #164 ) ) ;
#249 = DIRECTION ( 'NONE',  ( 0.000000000000000000, 0.000000000000000000, 1.000000000000000000 ) ) ;
#250 = CIRCLE ( 'NONE', #13, 0.3424999999999999711 ) ;
#251 = CYLINDRICAL_SURFACE ( 'NONE', #32, 0.3799999999999999489 ) ;
#252 = AXIS2_PLACEMENT_3D ( 'NONE', #187, #342, #104 ) ;
#253 = EDGE_CURVE ( 'NONE', #242, #244, #19, .T. ) ;
#254 = CARTESIAN_POINT ( 'NONE',  ( 0.3799999999999999489, -0.1240000000000000269, 0.000000000000000000 ) ) ;
#255 = VERTEX_POINT ( 'NONE', #142 ) ;
#256 = CARTESIAN_POINT ( 'NONE',  ( 6.219918418305563796E-17, -0.1640000000000000069, -0.4257897644669650927 ) ) ;
#257 = ORIENTED_EDGE ( 'NONE', *, *, #283, .F. ) ;
#258 = DIRECTION ( 'NONE',  ( -0.000000000000000000, 1.000000000000000000, -0.000000000000000000 ) ) ;
#259 = ORIENTED_EDGE ( 'NONE', *, *, #253, .T. ) ;
#260 = FACE_OUTER_BOUND ( 'NONE', #121, .T. ) ;
#261 = VERTEX_POINT ( 'NONE', #95 ) ;
#262 = ORIENTED_EDGE ( 'NONE', *, *, #298, .T. ) ;
#263 = DIRECTION ( 'NONE',  ( 0.000000000000000000, 0.000000000000000000, 1.000000000000000000 ) ) ;
#264 = VECTOR ( 'NONE', #177, 39.37007874015748143 ) ;
#265 = PRODUCT_DEFINITION ( 'UNKNOWN', '', #1, #172 ) ;
#266 = EDGE_LOOP ( 'NONE', ( #143, #228, #333, #209 ) ) ;
#267 = LINE ( 'NONE', #322, #124 ) ;
#268 = CARTESIAN_POINT ( 'NONE',  ( 0.000000000000000000, -0.1199999999999999956, 0.5899999999999999689 ) ) ;
#269 = CARTESIAN_POINT ( 'NONE',  ( 0.000000000000000000, 0.000000000000000000, 0.000000000000000000 ) ) ;
#270 = DIRECTION ( 'NONE',  ( 0.000000000000000000, 0.000000000000000000, 1.000000000000000000 ) ) ;
#271 = DIRECTION ( 'NONE',  ( -0.000000000000000000, 1.000000000000000000, -0.000000000000000000 ) ) ;
#272 = EDGE_CURVE ( 'NONE', #18, #11, #276, .T. ) ;
#273 = DIRECTION ( 'NONE',  ( -0.000000000000000000, 1.000000000000000000, -0.000000000000000000 ) ) ;
#274 = CARTESIAN_POINT ( 'NONE',  ( 0.000000000000000000, -0.1240000000000000130, 0.000000000000000000 ) ) ;
#275 = DIRECTION ( 'NONE',  ( 0.000000000000000000, 0.000000000000000000, 1.000000000000000000 ) ) ;
#276 = CIRCLE ( 'NONE', #334, 0.3799999999999999489 ) ;
#277 = PLANE ( 'NONE',  #79 ) ;
#278 = ORIENTED_EDGE ( 'NONE', *, *, #272, .F. ) ;
#279 = AXIS2_PLACEMENT_3D ( 'NONE', #222, #54, #194 ) ;
#280 =( CONVERSION_BASED_UNIT ( 'INCH', #97 ) LENGTH_UNIT ( ) NAMED_UNIT ( #292 ) );
#281 = ORIENTED_EDGE ( 'NONE', *, *, #201, .F. ) ;
#282 = DIRECTION ( 'NONE',  ( 0.000000000000000000, 0.000000000000000000, 1.000000000000000000 ) ) ;
#283 = EDGE_CURVE ( 'NONE', #171, #244, #120, .T. ) ;
#284 = PRESENTATION_LAYER_ASSIGNMENT (  '', '', ( #241 ) ) ;
#285 =( NAMED_UNIT ( * ) SI_UNIT ( $, .STERADIAN. ) SOLID_ANGLE_UNIT ( ) );
#286 = ORIENTED_EDGE ( 'NONE', *, *, #243, .F. ) ;
#287 = DIRECTION ( 'NONE',  ( -0.000000000000000000, 1.000000000000000000, -0.000000000000000000 ) ) ;
#288 = LENGTH_MEASURE_WITH_UNIT ( LENGTH_MEASURE( 0.02539999999999999897 ), #211 );
#289 = CYLINDRICAL_SURFACE ( 'NONE', #180, 0.3799999999999999489 ) ;
#290 = MECHANICAL_DESIGN_GEOMETRIC_PRESENTATION_REPRESENTATION (  '', ( #302 ), #14 ) ;
#291 = DIRECTION ( 'NONE',  ( -0.000000000000000000, 1.000000000000000000, -0.000000000000000000 ) ) ;
#292 = DIMENSIONAL_EXPONENTS ( 1.000000000000000000, 0.000000000000000000, 0.000000000000000000, 0.000000000000000000, 0.000000000000000000, 0.000000000000000000, 0.000000000000000000 ) ;
#293 = CARTESIAN_POINT ( 'NONE',  ( 0.000000000000000000, -0.1640000000000000069, 0.000000000000000000 ) ) ;
#294 =( LENGTH_UNIT ( ) NAMED_UNIT ( * ) SI_UNIT ( $, .METRE. ) );
#295 = AXIS2_PLACEMENT_3D ( 'NONE', #293, #183, #106 ) ;
#296 = FACE_OUTER_BOUND ( 'NONE', #129, .T. ) ;
#297 = CYLINDRICAL_SURFACE ( 'NONE', #341, 0.3424999999999999711 ) ;
#298 = EDGE_CURVE ( 'NONE', #11, #18, #184, .T. ) ;
#299 = ADVANCED_FACE ( 'NONE', ( #38, #198 ), #277, .F. ) ;
#300 = DIRECTION ( 'NONE',  ( 0.000000000000000000, 0.000000000000000000, 1.000000000000000000 ) ) ;
#301 = DIRECTION ( 'NONE',  ( 0.000000000000000000, 0.000000000000000000, 1.000000000000000000 ) ) ;
#302 = STYLED_ITEM ( 'NONE', ( #318 ), #75 ) ;
#303 = DIRECTION ( 'NONE',  ( 0.000000000000000000, 0.000000000000000000, 1.000000000000000000 ) ) ;
#304 = EDGE_CURVE ( 'NONE', #210, #171, #306, .T. ) ;
#305 = DIRECTION ( 'NONE',  ( -0.000000000000000000, 1.000000000000000000, -0.000000000000000000 ) ) ;
#306 = CIRCLE ( 'NONE', #152, 0.5899999999999999689 ) ;
#307 = UNCERTAINTY_MEASURE_WITH_UNIT (LENGTH_MEASURE( 1.000000000000000082E-05 ), #24, 'distance_accuracy_value', 'NONE');
#308 = CARTESIAN_POINT ( 'NONE',  ( 0.000000000000000000, -0.1640000000000000069, 0.000000000000000000 ) ) ;
#309 = EDGE_LOOP ( 'NONE', ( #78, #73, #66, #98 ) ) ;
#310 =( NAMED_UNIT ( * ) PLANE_ANGLE_UNIT ( ) SI_UNIT ( $, .RADIAN. ) );
#311 = AXIS2_PLACEMENT_3D ( 'NONE', #29, #33, #249 ) ;
#312 = VERTEX_POINT ( 'NONE', #256 ) ;
#313 = AXIS2_PLACEMENT_3D ( 'NONE', #269, #349, #218 ) ;
#314 = ORIENTED_EDGE ( 'NONE', *, *, #335, .F. ) ;
#315 = CARTESIAN_POINT ( 'NONE',  ( 4.653657836759941744E-17, 0.000000000000000000, -0.3799999999999999489 ) ) ;
#316 = ORIENTED_EDGE ( 'NONE', *, *, #50, .F. ) ;
#317 =( NAMED_UNIT ( * ) PLANE_ANGLE_UNIT ( ) SI_UNIT ( $, .RADIAN. ) );
#318 = PRESENTATION_STYLE_ASSIGNMENT (( #215 ) ) ;
#319 = VECTOR ( 'NONE', #136, 39.37007874015748143 ) ;
#320 = CARTESIAN_POINT ( 'NONE',  ( 4.653657836759941744E-17, -0.1640000000000000069, -0.3799999999999999489 ) ) ;
#321 = SURFACE_STYLE_FILL_AREA ( #162 ) ;
#322 = CARTESIAN_POINT ( 'NONE',  ( 5.214420721641742413E-17, -0.1640000000000000069, -0.4257897644669650927 ) ) ;
#323 = AXIS2_PLACEMENT_3D ( 'NONE', #328, #273, #301 ) ;
#324 = ADVANCED_FACE ( 'NONE', ( #260 ), #91, .T. ) ;
#325 = FACE_OUTER_BOUND ( 'NONE', #70, .T. ) ;
#326 = DIRECTION ( 'NONE',  ( 1.182917971378671814E-16, 0.2588190451025145222, -0.9659258262890699775 ) ) ;
#327 = AXIS2_PLACEMENT_3D ( 'NONE', #174, #258, #122 ) ;
#328 = CARTESIAN_POINT ( 'NONE',  ( 0.000000000000000000, -0.1199999999999999956, 0.000000000000000000 ) ) ;
#329 = LINE ( 'NONE', #85, #83 ) ;
#330 = DIRECTION ( 'NONE',  ( -0.000000000000000000, 1.000000000000000000, -0.000000000000000000 ) ) ;
#331 = ORIENTED_EDGE ( 'NONE', *, *, #212, .T. ) ;
#332 = CARTESIAN_POINT ( 'NONE',  ( 0.000000000000000000, -1.516480271171051896E-32, 0.000000000000000000 ) ) ;
#333 = ORIENTED_EDGE ( 'NONE', *, *, #253, .F. ) ;
#334 = AXIS2_PLACEMENT_3D ( 'NONE', #230, #4, #67 ) ;
#335 = EDGE_CURVE ( 'NONE', #261, #255, #88, .T. ) ;
#336 = DIRECTION ( 'NONE',  ( -0.000000000000000000, 1.000000000000000000, -0.000000000000000000 ) ) ;
#337 = ORIENTED_EDGE ( 'NONE', *, *, #243, .T. ) ;
#338 = ORIENTED_EDGE ( 'NONE', *, *, #21, .T. ) ;
#339 = ORIENTED_EDGE ( 'NONE', *, *, #335, .T. ) ;
#340 = COLOUR_RGB ( '',0.6470588235294117974, 0.6196078431372549211, 0.5882352941176470784 ) ;
#341 = AXIS2_PLACEMENT_3D ( 'NONE', #219, #192, #351 ) ;
#342 = DIRECTION ( 'NONE',  ( -0.000000000000000000, 1.000000000000000000, 0.000000000000000000 ) ) ;
#343 = EDGE_LOOP ( 'NONE', ( #37, #39 ) ) ;
#344 = EDGE_CURVE ( 'NONE', #18, #178, #69, .T. ) ;
#345 = PLANE ( 'NONE',  #252 ) ;
#346 = FACE_OUTER_BOUND ( 'NONE', #35, .T. ) ;
#347 = DIRECTION ( 'NONE',  ( 0.000000000000000000, 0.000000000000000000, 1.000000000000000000 ) ) ;
#348 = ADVANCED_FACE ( 'NONE', ( #65, #7 ), #10, .F. ) ;
#349 = DIRECTION ( 'NONE',  ( 0.000000000000000000, 0.000000000000000000, 1.000000000000000000 ) ) ;
#350 = AXIS2_PLACEMENT_3D ( 'NONE', #71, #305, #275 ) ;
#351 = DIRECTION ( 'NONE',  ( 0.000000000000000000, 0.000000000000000000, 1.000000000000000000 ) ) ;
#352 = DIRECTION ( 'NONE',  ( -0.000000000000000000, 1.000000000000000000, -0.000000000000000000 ) ) ;
#353 = CARTESIAN_POINT ( 'NONE',  ( 0.000000000000000000, -0.1640000000000000069, 0.4257897644669650927 ) ) ;
ENDSEC;
END-ISO-10303-21;
