ISO-10303-21;
HEADER;
FILE_DESCRIPTION (( 'STEP AP214' ),
    '1' );
FILE_NAME ('715102.STEP',
    '2023-12-26T09:01:46',
    ( '' ),
    ( '' ),
    'SwSTEP 2.0',
    'SolidWorks 2022',
    '' );
FILE_SCHEMA (( 'AUTOMOTIVE_DESIGN' ));
ENDSEC;

DATA;
#1 = DIRECTION ( 'NONE',  ( -0.000000000000000000, -0.000000000000000000, -1.000000000000000000 ) ) ;
#2 = ORIENTED_EDGE ( 'NONE', *, *, #197, .F. ) ;
#3 = PLANE ( 'NONE',  #247 ) ;
#4 = AXIS2_PLACEMENT_3D ( 'NONE', #119, #255, #154 ) ;
#5 = AXIS2_PLACEMENT_3D ( 'NONE', #283, #112, #134 ) ;
#6 = ORIENTED_EDGE ( 'NONE', *, *, #385, .T. ) ;
#7 = DIRECTION ( 'NONE',  ( -0.000000000000000000, -0.000000000000000000, -1.000000000000000000 ) ) ;
#8 = ADVANCED_FACE ( 'NONE', ( #354 ), #73, .F. ) ;
#9 = EDGE_LOOP ( 'NONE', ( #343, #203 ) ) ;
#10 = LINE ( 'NONE', #15, #238 ) ;
#11 = DIMENSIONAL_EXPONENTS ( 1.000000000000000000, 0.000000000000000000, 0.000000000000000000, 0.000000000000000000, 0.000000000000000000, 0.000000000000000000, 0.000000000000000000 ) ;
#12 = ORIENTED_EDGE ( 'NONE', *, *, #389, .T. ) ;
#13 = VECTOR ( 'NONE', #161, 39.37007874015748143 ) ;
#14 = VERTEX_POINT ( 'NONE', #357 ) ;
#15 = CARTESIAN_POINT ( 'NONE',  ( 0.5000000000000001110, 6.123233995736767268E-17, 0.1675556226726758746 ) ) ;
#16 = ORIENTED_EDGE ( 'NONE', *, *, #141, .T. ) ;
#17 = PRODUCT_DEFINITION_FORMATION_WITH_SPECIFIED_SOURCE ( 'ANY', '', #55, .NOT_KNOWN. ) ;
#18 = ORIENTED_EDGE ( 'NONE', *, *, #89, .F. ) ;
#19 = CARTESIAN_POINT ( 'NONE',  ( -0.4350000000000000533, 0.000000000000000000, 0.000000000000000000 ) ) ;
#20 = CARTESIAN_POINT ( 'NONE',  ( 0.000000000000000000, 0.000000000000000000, 1.934697013292993076E-17 ) ) ;
#21 = UNCERTAINTY_MEASURE_WITH_UNIT (LENGTH_MEASURE( 1.000000000000000082E-05 ), #232, 'distance_accuracy_value', 'NONE');
#22 = DIRECTION ( 'NONE',  ( -1.000000000000000000, 0.000000000000000000, 0.000000000000000000 ) ) ;
#23 = EDGE_CURVE ( 'NONE', #65, #187, #27, .T. ) ;
#24 = FILL_AREA_STYLE_COLOUR ( '', #390 ) ;
#25 = FACE_OUTER_BOUND ( 'NONE', #371, .T. ) ;
#26 = EDGE_LOOP ( 'NONE', ( #12, #290, #351, #346 ) ) ;
#27 = CIRCLE ( 'NONE', #331, 0.5000000000000001110 ) ;
#28 = CARTESIAN_POINT ( 'NONE',  ( 0.000000000000000000, 0.000000000000000000, 0.5000000000000000000 ) ) ;
#29 = CIRCLE ( 'NONE', #184, 0.5194999999999999618 ) ;
#30 = ORIENTED_EDGE ( 'NONE', *, *, #23, .F. ) ;
#31 = AXIS2_PLACEMENT_3D ( 'NONE', #261, #153, #95 ) ;
#32 = DIRECTION ( 'NONE',  ( -1.000000000000000000, 0.000000000000000000, 0.000000000000000000 ) ) ;
#33 = DIRECTION ( 'NONE',  ( -0.000000000000000000, -0.000000000000000000, -1.000000000000000000 ) ) ;
#34 = CARTESIAN_POINT ( 'NONE',  ( 0.000000000000000000, 0.000000000000000000, 1.934697013292993076E-17 ) ) ;
#35 = EDGE_CURVE ( 'NONE', #380, #42, #358, .T. ) ;
#36 = ORIENTED_EDGE ( 'NONE', *, *, #385, .F. ) ;
#37 = CARTESIAN_POINT ( 'NONE',  ( 0.5000000000000001110, 6.123233995736767268E-17, 0.5000000000000000000 ) ) ;
#38 = DIRECTION ( 'NONE',  ( -1.000000000000000000, 0.000000000000000000, 0.000000000000000000 ) ) ;
#39 = CYLINDRICAL_SURFACE ( 'NONE', #137, 0.4350000000000000533 ) ;
#40 = AXIS2_PLACEMENT_3D ( 'NONE', #218, #1, #285 ) ;
#41 = EDGE_CURVE ( 'NONE', #77, #380, #348, .T. ) ;
#42 = VERTEX_POINT ( 'NONE', #56 ) ;
#43 = LINE ( 'NONE', #344, #362 ) ;
#44 = ORIENTED_EDGE ( 'NONE', *, *, #338, .F. ) ;
#45 = ORIENTED_EDGE ( 'NONE', *, *, #84, .T. ) ;
#46 = CIRCLE ( 'NONE', #281, 0.4350000000000000533 ) ;
#47 = DIRECTION ( 'NONE',  ( -1.000000000000000000, 0.000000000000000000, 0.000000000000000000 ) ) ;
#48 = ADVANCED_FACE ( 'NONE', ( #336 ), #333, .F. ) ;
#49 = LINE ( 'NONE', #299, #115 ) ;
#50 = ORIENTED_EDGE ( 'NONE', *, *, #356, .T. ) ;
#51 = DIRECTION ( 'NONE',  ( 0.9659258262890682012, 1.182917971378669595E-16, -0.2588190451025214611 ) ) ;
#52 = CIRCLE ( 'NONE', #156, 0.5194999999999999618 ) ;
#53 = SURFACE_STYLE_FILL_AREA ( #211 ) ;
#54 = CARTESIAN_POINT ( 'NONE',  ( 0.000000000000000000, 0.000000000000000000, 0.5000000000000000000 ) ) ;
#55 = PRODUCT ( '715102', '715102', '', ( #326 ) ) ;
#56 = CARTESIAN_POINT ( 'NONE',  ( -0.4350000000000000533, 0.000000000000000000, 0.1000000000000000472 ) ) ;
#57 = AXIS2_PLACEMENT_3D ( 'NONE', #54, #309, #113 ) ;
#58 = CARTESIAN_POINT ( 'NONE',  ( 0.4350000000000000533, 5.327213576290986981E-17, 0.1000000000000000472 ) ) ;
#59 = CARTESIAN_POINT ( 'NONE',  ( -0.5194999999999998508, 0.000000000000000000, 0.1000000000000000194 ) ) ;
#60 = DIRECTION ( 'NONE',  ( -0.000000000000000000, -0.000000000000000000, -1.000000000000000000 ) ) ;
#61 = LINE ( 'NONE', #183, #205 ) ;
#62 = EDGE_CURVE ( 'NONE', #320, #105, #265, .T. ) ;
#63 = STYLED_ITEM ( 'NONE', ( #90 ), #92 ) ;
#64 = AXIS2_PLACEMENT_3D ( 'NONE', #378, #398, #329 ) ;
#65 = VERTEX_POINT ( 'NONE', #393 ) ;
#66 = EDGE_CURVE ( 'NONE', #131, #269, #392, .T. ) ;
#67 = AXIS2_PLACEMENT_3D ( 'NONE', #257, #7, #132 ) ;
#68 = DIRECTION ( 'NONE',  ( -1.000000000000000000, 0.000000000000000000, 0.000000000000000000 ) ) ;
#69 = FACE_BOUND ( 'NONE', #219, .T. ) ;
#70 = CARTESIAN_POINT ( 'NONE',  ( 0.4350000000000000533, 0.000000000000000000, 0.5000000000000000000 ) ) ;
#71 = CARTESIAN_POINT ( 'NONE',  ( -0.5000000000000001110, 0.000000000000000000, 0.1675556226726758746 ) ) ;
#72 = EDGE_CURVE ( 'NONE', #109, #314, #375, .T. ) ;
#73 = CYLINDRICAL_SURFACE ( 'NONE', #258, 0.5194999999999998508 ) ;
#74 = CARTESIAN_POINT ( 'NONE',  ( 0.5195000000000000728, 6.362040121570499999E-17, 1.934697013292993076E-17 ) ) ;
#75 = AXIS2_PLACEMENT_3D ( 'NONE', #363, #241, #22 ) ;
#76 = CIRCLE ( 'NONE', #5, 0.5000000000000001110 ) ;
#77 = VERTEX_POINT ( 'NONE', #274 ) ;
#78 = ORIENTED_EDGE ( 'NONE', *, *, #62, .T. ) ;
#79 =( CONVERSION_BASED_UNIT ( 'INCH', #297 ) LENGTH_UNIT ( ) NAMED_UNIT ( #11 ) );
#80 = MECHANICAL_DESIGN_GEOMETRIC_PRESENTATION_REPRESENTATION (  '', ( #63 ), #120 ) ;
#81 = ORIENTED_EDGE ( 'NONE', *, *, #66, .T. ) ;
#82 =( LENGTH_UNIT ( ) NAMED_UNIT ( * ) SI_UNIT ( $, .METRE. ) );
#83 = DIRECTION ( 'NONE',  ( -0.000000000000000000, -0.000000000000000000, -1.000000000000000000 ) ) ;
#84 = EDGE_CURVE ( 'NONE', #105, #320, #235, .T. ) ;
#85 = DIRECTION ( 'NONE',  ( -1.000000000000000000, 0.000000000000000000, 0.000000000000000000 ) ) ;
#86 = AXIS2_PLACEMENT_3D ( 'NONE', #117, #83, #305 ) ;
#87 = DIRECTION ( 'NONE',  ( -0.000000000000000000, -0.000000000000000000, -1.000000000000000000 ) ) ;
#88 = FACE_OUTER_BOUND ( 'NONE', #225, .T. ) ;
#89 = EDGE_CURVE ( 'NONE', #269, #350, #52, .T. ) ;
#90 = PRESENTATION_STYLE_ASSIGNMENT (( #276 ) ) ;
#91 = EDGE_CURVE ( 'NONE', #131, #14, #202, .T. ) ;
#92 = MANIFOLD_SOLID_BREP ( 'Revolve1', #190 ) ;
#93 = CIRCLE ( 'NONE', #191, 0.4350000000000000533 ) ;
#94 = VERTEX_POINT ( 'NONE', #215 ) ;
#95 = DIRECTION ( 'NONE',  ( 1.000000000000000000, 0.000000000000000000, -0.000000000000000000 ) ) ;
#96 = FACE_OUTER_BOUND ( 'NONE', #26, .T. ) ;
#97 = ORIENTED_EDGE ( 'NONE', *, *, #107, .F. ) ;
#98 = CARTESIAN_POINT ( 'NONE',  ( 0.000000000000000000, 0.000000000000000000, 0.1675556226726758746 ) ) ;
#99 = CARTESIAN_POINT ( 'NONE',  ( -0.5000000000000001110, 0.000000000000000000, 0.5000000000000000000 ) ) ;
#100 = DIRECTION ( 'NONE',  ( -0.000000000000000000, -0.000000000000000000, -1.000000000000000000 ) ) ;
#101 = VERTEX_POINT ( 'NONE', #58 ) ;
#102 = CARTESIAN_POINT ( 'NONE',  ( 0.5194999999999998508, 6.362040121570498766E-17, 0.000000000000000000 ) ) ;
#103 =( LENGTH_UNIT ( ) NAMED_UNIT ( * ) SI_UNIT ( $, .METRE. ) );
#104 = PRODUCT_DEFINITION_SHAPE ( 'NONE', 'NONE',  #279 ) ;
#105 = VERTEX_POINT ( 'NONE', #180 ) ;
#106 = APPLICATION_PROTOCOL_DEFINITION ( 'draft international standard', 'automotive_design', 1998, #275 ) ;
#107 = EDGE_CURVE ( 'NONE', #320, #294, #364, .T. ) ;
#108 = ORIENTED_EDGE ( 'NONE', *, *, #23, .T. ) ;
#109 = VERTEX_POINT ( 'NONE', #99 ) ;
#110 = DIRECTION ( 'NONE',  ( 0.000000000000000000, 0.000000000000000000, 1.000000000000000000 ) ) ;
#111 = EDGE_CURVE ( 'NONE', #380, #77, #289, .T. ) ;
#112 = DIRECTION ( 'NONE',  ( -0.000000000000000000, -0.000000000000000000, -1.000000000000000000 ) ) ;
#113 = DIRECTION ( 'NONE',  ( -1.000000000000000000, 0.000000000000000000, 0.000000000000000000 ) ) ;
#114 = DIRECTION ( 'NONE',  ( -1.000000000000000000, 0.000000000000000000, 0.000000000000000000 ) ) ;
#115 = VECTOR ( 'NONE', #139, 39.37007874015747433 ) ;
#116 = LENGTH_MEASURE_WITH_UNIT ( LENGTH_MEASURE( 0.02539999999999999897 ), #245 );
#117 = CARTESIAN_POINT ( 'NONE',  ( 0.000000000000000000, 0.000000000000000000, 0.000000000000000000 ) ) ;
#118 = ADVANCED_FACE ( 'NONE', ( #69, #282 ), #316, .F. ) ;
#119 = CARTESIAN_POINT ( 'NONE',  ( 0.5194999999999998508, 0.000000000000000000, 0.1000000000000000194 ) ) ;
#120 =( GEOMETRIC_REPRESENTATION_CONTEXT ( 3 ) GLOBAL_UNCERTAINTY_ASSIGNED_CONTEXT ( ( #214 ) ) GLOBAL_UNIT_ASSIGNED_CONTEXT ( ( #148, #330, #334 ) ) REPRESENTATION_CONTEXT ( 'NONE', 'WORKASPACE' ) );
#121 = ORIENTED_EDGE ( 'NONE', *, *, #288, .T. ) ;
#122 = CARTESIAN_POINT ( 'NONE',  ( 0.6774800000000004152, 8.296737134863492767E-17, 0.1199999999999999956 ) ) ;
#123 = DIRECTION ( 'NONE',  ( -1.000000000000000000, 0.000000000000000000, 0.000000000000000000 ) ) ;
#124 = CARTESIAN_POINT ( 'NONE',  ( -0.6774800000000004152, 0.000000000000000000, 0.000000000000000000 ) ) ;
#125 = ORIENTED_EDGE ( 'NONE', *, *, #338, .T. ) ;
#126 = DIRECTION ( 'NONE',  ( -1.000000000000000000, 0.000000000000000000, 0.000000000000000000 ) ) ;
#127 = DIRECTION ( 'NONE',  ( -0.000000000000000000, -0.000000000000000000, -1.000000000000000000 ) ) ;
#128 = EDGE_CURVE ( 'NONE', #77, #101, #251, .T. ) ;
#129 = EDGE_LOOP ( 'NONE', ( #387, #262, #81, #168 ) ) ;
#130 = CYLINDRICAL_SURFACE ( 'NONE', #259, 0.6774800000000004152 ) ;
#131 = VERTEX_POINT ( 'NONE', #59 ) ;
#132 = DIRECTION ( 'NONE',  ( -1.000000000000000000, 0.000000000000000000, 0.000000000000000000 ) ) ;
#133 = ORIENTED_EDGE ( 'NONE', *, *, #173, .T. ) ;
#134 = DIRECTION ( 'NONE',  ( -1.000000000000000000, 0.000000000000000000, 0.000000000000000000 ) ) ;
#135 = ORIENTED_EDGE ( 'NONE', *, *, #66, .F. ) ;
#136 =( NAMED_UNIT ( * ) SI_UNIT ( $, .STERADIAN. ) SOLID_ANGLE_UNIT ( ) );
#137 = AXIS2_PLACEMENT_3D ( 'NONE', #287, #291, #159 ) ;
#138 = ORIENTED_EDGE ( 'NONE', *, *, #242, .T. ) ;
#139 = DIRECTION ( 'NONE',  ( -0.9659258262890682012, 0.000000000000000000, -0.2588190451025214611 ) ) ;
#140 =( GEOMETRIC_REPRESENTATION_CONTEXT ( 3 ) GLOBAL_UNCERTAINTY_ASSIGNED_CONTEXT ( ( #195 ) ) GLOBAL_UNIT_ASSIGNED_CONTEXT ( ( #79, #208, #136 ) ) REPRESENTATION_CONTEXT ( 'NONE', 'WORKASPACE' ) );
#141 = EDGE_CURVE ( 'NONE', #314, #109, #223, .T. ) ;
#142 = ORIENTED_EDGE ( 'NONE', *, *, #35, .T. ) ;
#143 = CARTESIAN_POINT ( 'NONE',  ( 0.000000000000000000, 0.000000000000000000, 0.5000000000000000000 ) ) ;
#144 = DIRECTION ( 'NONE',  ( -1.000000000000000000, 0.000000000000000000, 0.000000000000000000 ) ) ;
#145 = CYLINDRICAL_SURFACE ( 'NONE', #384, 0.5000000000000001110 ) ;
#146 = VECTOR ( 'NONE', #304, 39.37007874015748143 ) ;
#147 = ADVANCED_FACE ( 'NONE', ( #370 ), #181, .T. ) ;
#148 =( CONVERSION_BASED_UNIT ( 'INCH', #116 ) LENGTH_UNIT ( ) NAMED_UNIT ( #196 ) );
#149 = PRODUCT_DEFINITION_CONTEXT ( 'detailed design', #275, 'design' ) ;
#150 = DIRECTION ( 'NONE',  ( -0.000000000000000000, -0.000000000000000000, -1.000000000000000000 ) ) ;
#151 = ORIENTED_EDGE ( 'NONE', *, *, #284, .F. ) ;
#152 = DIRECTION ( 'NONE',  ( -1.000000000000000000, 0.000000000000000000, 0.000000000000000000 ) ) ;
#153 = DIRECTION ( 'NONE',  ( 0.000000000000000000, 0.000000000000000000, 1.000000000000000000 ) ) ;
#154 = DIRECTION ( 'NONE',  ( 1.000000000000000000, 0.000000000000000000, -0.000000000000000000 ) ) ;
#155 = FACE_OUTER_BOUND ( 'NONE', #296, .T. ) ;
#156 = AXIS2_PLACEMENT_3D ( 'NONE', #20, #332, #114 ) ;
#157 = ADVANCED_BREP_SHAPE_REPRESENTATION ( '715102', ( #92, #365 ), #206 ) ;
#158 = ORIENTED_EDGE ( 'NONE', *, *, #284, .T. ) ;
#159 = DIRECTION ( 'NONE',  ( -1.000000000000000000, 0.000000000000000000, 0.000000000000000000 ) ) ;
#160 = ORIENTED_EDGE ( 'NONE', *, *, #128, .T. ) ;
#161 = DIRECTION ( 'NONE',  ( -0.000000000000000000, -0.000000000000000000, -1.000000000000000000 ) ) ;
#162 = ORIENTED_EDGE ( 'NONE', *, *, #72, .T. ) ;
#163 = APPLICATION_PROTOCOL_DEFINITION ( 'draft international standard', 'automotive_design', 1998, #250 ) ;
#164 = ADVANCED_FACE ( 'NONE', ( #25 ), #186, .T. ) ;
#165 = ORIENTED_EDGE ( 'NONE', *, *, #216, .T. ) ;
#166 = LENGTH_MEASURE_WITH_UNIT ( LENGTH_MEASURE( 0.02539999999999999897 ), #82 );
#167 = CIRCLE ( 'NONE', #267, 0.6774800000000004152 ) ;
#168 = ORIENTED_EDGE ( 'NONE', *, *, #89, .T. ) ;
#169 = ADVANCED_FACE ( 'NONE', ( #366 ), #260, .F. ) ;
#170 = EDGE_LOOP ( 'NONE', ( #328, #108, #133, #231 ) ) ;
#171 = CARTESIAN_POINT ( 'NONE',  ( 0.000000000000000000, 0.000000000000000000, 0.1675556226726758746 ) ) ;
#172 = CARTESIAN_POINT ( 'NONE',  ( 0.000000000000000000, 0.000000000000000000, 0.1675556226726758746 ) ) ;
#173 = EDGE_CURVE ( 'NONE', #187, #105, #49, .T. ) ;
#174 = DIRECTION ( 'NONE',  ( -1.000000000000000000, 0.000000000000000000, 0.000000000000000000 ) ) ;
#175 = ADVANCED_FACE ( 'NONE', ( #88 ), #145, .T. ) ;
#176 = PRESENTATION_LAYER_ASSIGNMENT (  '', '', ( #353 ) ) ;
#177 = CARTESIAN_POINT ( 'NONE',  ( -0.5194999999999998508, 0.000000000000000000, 0.000000000000000000 ) ) ;
#178 = VECTOR ( 'NONE', #60, 39.37007874015748143 ) ;
#179 = CONICAL_SURFACE ( 'NONE', #376, 0.5000000000000001110, 1.308996938995746540 ) ;
#180 = CARTESIAN_POINT ( 'NONE',  ( -0.6774800000000004152, 0.000000000000000000, 0.1199999999999999956 ) ) ;
#181 = CYLINDRICAL_SURFACE ( 'NONE', #361, 0.5000000000000001110 ) ;
#182 = ORIENTED_EDGE ( 'NONE', *, *, #35, .F. ) ;
#183 = CARTESIAN_POINT ( 'NONE',  ( -0.5000000000000001110, 0.000000000000000000, 0.000000000000000000 ) ) ;
#184 = AXIS2_PLACEMENT_3D ( 'NONE', #34, #402, #126 ) ;
#185 = CARTESIAN_POINT ( 'NONE',  ( 0.000000000000000000, 0.000000000000000000, 3.593603567417987858E-17 ) ) ;
#186 = CYLINDRICAL_SURFACE ( 'NONE', #244, 0.6774800000000004152 ) ;
#187 = VERTEX_POINT ( 'NONE', #71 ) ;
#188 = FACE_OUTER_BOUND ( 'NONE', #233, .T. ) ;
#189 = CARTESIAN_POINT ( 'NONE',  ( 0.6774800000000004152, 8.296737134863492767E-17, 3.593603567417987858E-17 ) ) ;
#190 = CLOSED_SHELL ( 'NONE', ( #301, #147, #48, #8, #377, #164, #324, #169, #118, #194, #342, #175, #394 ) ) ;
#191 = AXIS2_PLACEMENT_3D ( 'NONE', #222, #374, #230 ) ;
#192 = EDGE_LOOP ( 'NONE', ( #300, #158 ) ) ;
#193 = DIRECTION ( 'NONE',  ( -0.000000000000000000, -0.000000000000000000, -1.000000000000000000 ) ) ;
#194 = ADVANCED_FACE ( 'NONE', ( #155 ), #39, .F. ) ;
#195 = UNCERTAINTY_MEASURE_WITH_UNIT (LENGTH_MEASURE( 1.000000000000000082E-05 ), #79, 'distance_accuracy_value', 'NONE');
#196 = DIMENSIONAL_EXPONENTS ( 1.000000000000000000, 0.000000000000000000, 0.000000000000000000, 0.000000000000000000, 0.000000000000000000, 0.000000000000000000, 0.000000000000000000 ) ;
#197 = EDGE_CURVE ( 'NONE', #314, #65, #43, .T. ) ;
#198 = EDGE_LOOP ( 'NONE', ( #248, #221 ) ) ;
#199 = ORIENTED_EDGE ( 'NONE', *, *, #128, .F. ) ;
#200 = FILL_AREA_STYLE_COLOUR ( '', #399 ) ;
#201 = PRODUCT_RELATED_PRODUCT_CATEGORY ( 'part', '', ( #55 ) ) ;
#202 = CIRCLE ( 'NONE', #318, 0.5194999999999998508 ) ;
#203 = ORIENTED_EDGE ( 'NONE', *, *, #141, .F. ) ;
#204 = FILL_AREA_STYLE ('',( #200 ) ) ;
#205 = VECTOR ( 'NONE', #345, 39.37007874015748143 ) ;
#206 =( GEOMETRIC_REPRESENTATION_CONTEXT ( 3 ) GLOBAL_UNCERTAINTY_ASSIGNED_CONTEXT ( ( #21 ) ) GLOBAL_UNIT_ASSIGNED_CONTEXT ( ( #232, #352, #391 ) ) REPRESENTATION_CONTEXT ( 'NONE', 'WORKASPACE' ) );
#207 = ORIENTED_EDGE ( 'NONE', *, *, #254, .T. ) ;
#208 =( NAMED_UNIT ( * ) PLANE_ANGLE_UNIT ( ) SI_UNIT ( $, .RADIAN. ) );
#209 = CARTESIAN_POINT ( 'NONE',  ( 0.000000000000000000, 0.000000000000000000, 0.1199999999999999956 ) ) ;
#210 = DIRECTION ( 'NONE',  ( 1.000000000000000000, 0.000000000000000000, 0.000000000000000000 ) ) ;
#211 = FILL_AREA_STYLE ('',( #24 ) ) ;
#212 = CIRCLE ( 'NONE', #266, 0.6774800000000004152 ) ;
#213 = CARTESIAN_POINT ( 'NONE',  ( 0.000000000000000000, 0.000000000000000000, 0.000000000000000000 ) ) ;
#214 = UNCERTAINTY_MEASURE_WITH_UNIT (LENGTH_MEASURE( 1.000000000000000082E-05 ), #148, 'distance_accuracy_value', 'NONE');
#215 = CARTESIAN_POINT ( 'NONE',  ( -0.6774800000000004152, 0.000000000000000000, 3.593603567417987858E-17 ) ) ;
#216 = EDGE_CURVE ( 'NONE', #294, #94, #212, .T. ) ;
#217 = VECTOR ( 'NONE', #127, 39.37007874015748143 ) ;
#218 = CARTESIAN_POINT ( 'NONE',  ( 0.000000000000000000, 0.000000000000000000, 0.5000000000000000000 ) ) ;
#219 = EDGE_LOOP ( 'NONE', ( #340, #44 ) ) ;
#220 = DIRECTION ( 'NONE',  ( -0.000000000000000000, 0.000000000000000000, -1.000000000000000000 ) ) ;
#221 = ORIENTED_EDGE ( 'NONE', *, *, #41, .T. ) ;
#222 = CARTESIAN_POINT ( 'NONE',  ( 0.000000000000000000, 0.000000000000000000, 0.1000000000000000472 ) ) ;
#223 = CIRCLE ( 'NONE', #40, 0.5000000000000001110 ) ;
#224 = DIRECTION ( 'NONE',  ( -1.000000000000000000, 0.000000000000000000, 0.000000000000000000 ) ) ;
#225 = EDGE_LOOP ( 'NONE', ( #2, #16, #6, #30 ) ) ;
#226 = FACE_BOUND ( 'NONE', #198, .T. ) ;
#227 = CARTESIAN_POINT ( 'NONE',  ( 0.4350000000000000533, 5.327213576290986981E-17, 0.000000000000000000 ) ) ;
#228 = CARTESIAN_POINT ( 'NONE',  ( -0.4350000000000000533, 0.000000000000000000, 0.5000000000000000000 ) ) ;
#229 = ORIENTED_EDGE ( 'NONE', *, *, #197, .T. ) ;
#230 = DIRECTION ( 'NONE',  ( -1.000000000000000000, 0.000000000000000000, 0.000000000000000000 ) ) ;
#231 = ORIENTED_EDGE ( 'NONE', *, *, #62, .F. ) ;
#232 =( CONVERSION_BASED_UNIT ( 'INCH', #166 ) LENGTH_UNIT ( ) NAMED_UNIT ( #319 ) );
#233 = EDGE_LOOP ( 'NONE', ( #45, #400, #325, #234 ) ) ;
#234 = ORIENTED_EDGE ( 'NONE', *, *, #254, .F. ) ;
#235 = CIRCLE ( 'NONE', #75, 0.6774800000000004152 ) ;
#236 = DIRECTION ( 'NONE',  ( -0.000000000000000000, -0.000000000000000000, -1.000000000000000000 ) ) ;
#237 = SHAPE_DEFINITION_REPRESENTATION ( #104, #157 ) ;
#238 = VECTOR ( 'NONE', #51, 39.37007874015747433 ) ;
#239 = CARTESIAN_POINT ( 'NONE',  ( 0.6774800000000004152, 8.296737134863492767E-17, 0.000000000000000000 ) ) ;
#240 = SURFACE_STYLE_FILL_AREA ( #204 ) ;
#241 = DIRECTION ( 'NONE',  ( -0.000000000000000000, -0.000000000000000000, -1.000000000000000000 ) ) ;
#242 = EDGE_CURVE ( 'NONE', #350, #269, #29, .T. ) ;
#243 = DIRECTION ( 'NONE',  ( -1.000000000000000000, 0.000000000000000000, 0.000000000000000000 ) ) ;
#244 = AXIS2_PLACEMENT_3D ( 'NONE', #373, #246, #38 ) ;
#245 =( LENGTH_UNIT ( ) NAMED_UNIT ( * ) SI_UNIT ( $, .METRE. ) );
#246 = DIRECTION ( 'NONE',  ( -0.000000000000000000, -0.000000000000000000, -1.000000000000000000 ) ) ;
#247 = AXIS2_PLACEMENT_3D ( 'NONE', #70, #220, #32 ) ;
#248 = ORIENTED_EDGE ( 'NONE', *, *, #111, .T. ) ;
#249 = CARTESIAN_POINT ( 'NONE',  ( -0.5194999999999999618, 0.000000000000000000, 1.934697013292993076E-17 ) ) ;
#250 = APPLICATION_CONTEXT ( 'automotive_design' ) ;
#251 = LINE ( 'NONE', #227, #217 ) ;
#252 = ORIENTED_EDGE ( 'NONE', *, *, #389, .F. ) ;
#253 = FACE_OUTER_BOUND ( 'NONE', #268, .T. ) ;
#254 = EDGE_CURVE ( 'NONE', #105, #94, #315, .T. ) ;
#255 = DIRECTION ( 'NONE',  ( 0.000000000000000000, 0.000000000000000000, 1.000000000000000000 ) ) ;
#256 = EDGE_LOOP ( 'NONE', ( #162, #229, #252, #36 ) ) ;
#257 = CARTESIAN_POINT ( 'NONE',  ( 0.000000000000000000, 0.000000000000000000, 0.1000000000000000194 ) ) ;
#258 = AXIS2_PLACEMENT_3D ( 'NONE', #327, #236, #47 ) ;
#259 = AXIS2_PLACEMENT_3D ( 'NONE', #379, #100, #152 ) ;
#260 = CYLINDRICAL_SURFACE ( 'NONE', #64, 0.5194999999999998508 ) ;
#261 = CARTESIAN_POINT ( 'NONE',  ( 0.6774800000000004152, 0.000000000000000000, 2.764150290355490621E-17 ) ) ;
#262 = ORIENTED_EDGE ( 'NONE', *, *, #91, .F. ) ;
#263 = CARTESIAN_POINT ( 'NONE',  ( 0.000000000000000000, 0.000000000000000000, 0.1000000000000000472 ) ) ;
#264 = ORIENTED_EDGE ( 'NONE', *, *, #41, .F. ) ;
#265 = CIRCLE ( 'NONE', #355, 0.6774800000000004152 ) ;
#266 = AXIS2_PLACEMENT_3D ( 'NONE', #185, #403, #372 ) ;
#267 = AXIS2_PLACEMENT_3D ( 'NONE', #339, #193, #321 ) ;
#268 = EDGE_LOOP ( 'NONE', ( #388, #165 ) ) ;
#269 = VERTEX_POINT ( 'NONE', #249 ) ;
#270 = ORIENTED_EDGE ( 'NONE', *, *, #242, .F. ) ;
#271 = CARTESIAN_POINT ( 'NONE',  ( 0.000000000000000000, 0.000000000000000000, 0.000000000000000000 ) ) ;
#272 = ORIENTED_EDGE ( 'NONE', *, *, #216, .F. ) ;
#273 = DIRECTION ( 'NONE',  ( -1.000000000000000000, 0.000000000000000000, 0.000000000000000000 ) ) ;
#274 = CARTESIAN_POINT ( 'NONE',  ( 0.4350000000000000533, 5.327213576290986981E-17, 0.5000000000000000000 ) ) ;
#275 = APPLICATION_CONTEXT ( 'automotive_design' ) ;
#276 = SURFACE_STYLE_USAGE ( .BOTH. , #280 ) ;
#277 = DIRECTION ( 'NONE',  ( -0.000000000000000000, -0.000000000000000000, -1.000000000000000000 ) ) ;
#278 = DIRECTION ( 'NONE',  ( -0.000000000000000000, -0.000000000000000000, -1.000000000000000000 ) ) ;
#279 = PRODUCT_DEFINITION ( 'UNKNOWN', '', #17, #149 ) ;
#280 = SURFACE_SIDE_STYLE ('',( #53 ) ) ;
#281 = AXIS2_PLACEMENT_3D ( 'NONE', #263, #341, #68 ) ;
#282 = FACE_OUTER_BOUND ( 'NONE', #192, .T. ) ;
#283 = CARTESIAN_POINT ( 'NONE',  ( 0.000000000000000000, 0.000000000000000000, 0.1675556226726758746 ) ) ;
#284 = EDGE_CURVE ( 'NONE', #14, #131, #308, .T. ) ;
#285 = DIRECTION ( 'NONE',  ( -1.000000000000000000, 0.000000000000000000, 0.000000000000000000 ) ) ;
#286 = LINE ( 'NONE', #102, #295 ) ;
#287 = CARTESIAN_POINT ( 'NONE',  ( 0.000000000000000000, 0.000000000000000000, 0.000000000000000000 ) ) ;
#288 = EDGE_CURVE ( 'NONE', #42, #101, #93, .T. ) ;
#289 = CIRCLE ( 'NONE', #311, 0.4350000000000000533 ) ;
#290 = ORIENTED_EDGE ( 'NONE', *, *, #395, .T. ) ;
#291 = DIRECTION ( 'NONE',  ( -0.000000000000000000, -0.000000000000000000, -1.000000000000000000 ) ) ;
#292 = EDGE_LOOP ( 'NONE', ( #264, #160, #125, #182 ) ) ;
#293 = DIRECTION ( 'NONE',  ( -0.000000000000000000, -0.000000000000000000, -1.000000000000000000 ) ) ;
#294 = VERTEX_POINT ( 'NONE', #189 ) ;
#295 = VECTOR ( 'NONE', #347, 39.37007874015748143 ) ;
#296 = EDGE_LOOP ( 'NONE', ( #199, #386, #142, #121 ) ) ;
#297 = LENGTH_MEASURE_WITH_UNIT ( LENGTH_MEASURE( 0.02539999999999999897 ), #103 );
#298 = PRESENTATION_STYLE_ASSIGNMENT (( #359 ) ) ;
#299 = CARTESIAN_POINT ( 'NONE',  ( -0.5000000000000001110, 0.000000000000000000, 0.1675556226726758746 ) ) ;
#300 = ORIENTED_EDGE ( 'NONE', *, *, #91, .T. ) ;
#301 = ADVANCED_FACE ( 'NONE', ( #96 ), #179, .T. ) ;
#302 = VECTOR ( 'NONE', #306, 39.37007874015748143 ) ;
#303 = DIRECTION ( 'NONE',  ( -0.000000000000000000, -0.000000000000000000, -1.000000000000000000 ) ) ;
#304 = DIRECTION ( 'NONE',  ( -0.000000000000000000, -0.000000000000000000, -1.000000000000000000 ) ) ;
#305 = DIRECTION ( 'NONE',  ( -1.000000000000000000, 0.000000000000000000, 0.000000000000000000 ) ) ;
#306 = DIRECTION ( 'NONE',  ( -0.000000000000000000, -0.000000000000000000, -1.000000000000000000 ) ) ;
#307 = PRESENTATION_LAYER_ASSIGNMENT (  '', '', ( #63 ) ) ;
#308 = CIRCLE ( 'NONE', #67, 0.5194999999999998508 ) ;
#309 = DIRECTION ( 'NONE',  ( -0.000000000000000000, -0.000000000000000000, -1.000000000000000000 ) ) ;
#310 = DIRECTION ( 'NONE',  ( -0.000000000000000000, -0.000000000000000000, -1.000000000000000000 ) ) ;
#311 = AXIS2_PLACEMENT_3D ( 'NONE', #28, #150, #123 ) ;
#312 = CARTESIAN_POINT ( 'NONE',  ( 0.000000000000000000, 0.000000000000000000, 0.000000000000000000 ) ) ;
#313 = PLANE ( 'NONE',  #31 ) ;
#314 = VERTEX_POINT ( 'NONE', #37 ) ;
#315 = LINE ( 'NONE', #124, #13 ) ;
#316 = PLANE ( 'NONE',  #4 ) ;
#317 = DIRECTION ( 'NONE',  ( -0.000000000000000000, -0.000000000000000000, -1.000000000000000000 ) ) ;
#318 = AXIS2_PLACEMENT_3D ( 'NONE', #360, #87, #85 ) ;
#319 = DIMENSIONAL_EXPONENTS ( 1.000000000000000000, 0.000000000000000000, 0.000000000000000000, 0.000000000000000000, 0.000000000000000000, 0.000000000000000000, 0.000000000000000000 ) ;
#320 = VERTEX_POINT ( 'NONE', #122 ) ;
#321 = DIRECTION ( 'NONE',  ( -1.000000000000000000, 0.000000000000000000, 0.000000000000000000 ) ) ;
#322 = EDGE_LOOP ( 'NONE', ( #18, #270 ) ) ;
#323 = FACE_OUTER_BOUND ( 'NONE', #170, .T. ) ;
#324 = ADVANCED_FACE ( 'NONE', ( #369, #253 ), #313, .F. ) ;
#325 = ORIENTED_EDGE ( 'NONE', *, *, #367, .F. ) ;
#326 = PRODUCT_CONTEXT ( 'NONE', #250, 'mechanical' ) ;
#327 = CARTESIAN_POINT ( 'NONE',  ( 0.000000000000000000, 0.000000000000000000, 0.000000000000000000 ) ) ;
#328 = ORIENTED_EDGE ( 'NONE', *, *, #395, .F. ) ;
#329 = DIRECTION ( 'NONE',  ( -1.000000000000000000, 0.000000000000000000, 0.000000000000000000 ) ) ;
#330 =( NAMED_UNIT ( * ) PLANE_ANGLE_UNIT ( ) SI_UNIT ( $, .RADIAN. ) );
#331 = AXIS2_PLACEMENT_3D ( 'NONE', #172, #303, #174 ) ;
#332 = DIRECTION ( 'NONE',  ( -0.000000000000000000, -0.000000000000000000, -1.000000000000000000 ) ) ;
#333 = CYLINDRICAL_SURFACE ( 'NONE', #86, 0.4350000000000000533 ) ;
#334 =( NAMED_UNIT ( * ) SI_UNIT ( $, .STERADIAN. ) SOLID_ANGLE_UNIT ( ) );
#335 = MECHANICAL_DESIGN_GEOMETRIC_PRESENTATION_REPRESENTATION (  '', ( #353 ), #140 ) ;
#336 = FACE_OUTER_BOUND ( 'NONE', #292, .T. ) ;
#337 = CONICAL_SURFACE ( 'NONE', #349, 0.5000000000000001110, 1.308996938995746540 ) ;
#338 = EDGE_CURVE ( 'NONE', #101, #42, #46, .T. ) ;
#339 = CARTESIAN_POINT ( 'NONE',  ( 0.000000000000000000, 0.000000000000000000, 3.593603567417987858E-17 ) ) ;
#340 = ORIENTED_EDGE ( 'NONE', *, *, #288, .F. ) ;
#341 = DIRECTION ( 'NONE',  ( -0.000000000000000000, -0.000000000000000000, -1.000000000000000000 ) ) ;
#342 = ADVANCED_FACE ( 'NONE', ( #381, #226 ), #3, .F. ) ;
#343 = ORIENTED_EDGE ( 'NONE', *, *, #72, .F. ) ;
#344 = CARTESIAN_POINT ( 'NONE',  ( 0.5000000000000001110, 6.123233995736767268E-17, 0.000000000000000000 ) ) ;
#345 = DIRECTION ( 'NONE',  ( -0.000000000000000000, -0.000000000000000000, -1.000000000000000000 ) ) ;
#346 = ORIENTED_EDGE ( 'NONE', *, *, #173, .F. ) ;
#347 = DIRECTION ( 'NONE',  ( -0.000000000000000000, -0.000000000000000000, -1.000000000000000000 ) ) ;
#348 = CIRCLE ( 'NONE', #57, 0.4350000000000000533 ) ;
#349 = AXIS2_PLACEMENT_3D ( 'NONE', #171, #293, #273 ) ;
#350 = VERTEX_POINT ( 'NONE', #74 ) ;
#351 = ORIENTED_EDGE ( 'NONE', *, *, #84, .F. ) ;
#352 =( NAMED_UNIT ( * ) PLANE_ANGLE_UNIT ( ) SI_UNIT ( $, .RADIAN. ) );
#353 = STYLED_ITEM ( 'NONE', ( #298 ), #157 ) ;
#354 = FACE_OUTER_BOUND ( 'NONE', #382, .T. ) ;
#355 = AXIS2_PLACEMENT_3D ( 'NONE', #209, #396, #144 ) ;
#356 = EDGE_CURVE ( 'NONE', #14, #350, #286, .T. ) ;
#357 = CARTESIAN_POINT ( 'NONE',  ( 0.5194999999999998508, 6.362040121570498766E-17, 0.1000000000000000194 ) ) ;
#358 = LINE ( 'NONE', #19, #146 ) ;
#359 = SURFACE_STYLE_USAGE ( .BOTH. , #383 ) ;
#360 = CARTESIAN_POINT ( 'NONE',  ( 0.000000000000000000, 0.000000000000000000, 0.1000000000000000194 ) ) ;
#361 = AXIS2_PLACEMENT_3D ( 'NONE', #312, #33, #224 ) ;
#362 = VECTOR ( 'NONE', #310, 39.37007874015748143 ) ;
#363 = CARTESIAN_POINT ( 'NONE',  ( 0.000000000000000000, 0.000000000000000000, 0.1199999999999999956 ) ) ;
#364 = LINE ( 'NONE', #239, #178 ) ;
#365 = AXIS2_PLACEMENT_3D ( 'NONE', #271, #110, #210 ) ;
#366 = FACE_OUTER_BOUND ( 'NONE', #129, .T. ) ;
#367 = EDGE_CURVE ( 'NONE', #94, #294, #167, .T. ) ;
#368 = AXIS2_PLACEMENT_3D ( 'NONE', #143, #277, #243 ) ;
#369 = FACE_BOUND ( 'NONE', #322, .T. ) ;
#370 = FACE_OUTER_BOUND ( 'NONE', #256, .T. ) ;
#371 = EDGE_LOOP ( 'NONE', ( #97, #78, #207, #272 ) ) ;
#372 = DIRECTION ( 'NONE',  ( -1.000000000000000000, 0.000000000000000000, 0.000000000000000000 ) ) ;
#373 = CARTESIAN_POINT ( 'NONE',  ( 0.000000000000000000, 0.000000000000000000, 0.000000000000000000 ) ) ;
#374 = DIRECTION ( 'NONE',  ( -0.000000000000000000, -0.000000000000000000, -1.000000000000000000 ) ) ;
#375 = CIRCLE ( 'NONE', #368, 0.5000000000000001110 ) ;
#376 = AXIS2_PLACEMENT_3D ( 'NONE', #98, #317, #401 ) ;
#377 = ADVANCED_FACE ( 'NONE', ( #188 ), #130, .T. ) ;
#378 = CARTESIAN_POINT ( 'NONE',  ( 0.000000000000000000, 0.000000000000000000, 0.000000000000000000 ) ) ;
#379 = CARTESIAN_POINT ( 'NONE',  ( 0.000000000000000000, 0.000000000000000000, 0.000000000000000000 ) ) ;
#380 = VERTEX_POINT ( 'NONE', #228 ) ;
#381 = FACE_OUTER_BOUND ( 'NONE', #9, .T. ) ;
#382 = EDGE_LOOP ( 'NONE', ( #151, #50, #138, #135 ) ) ;
#383 = SURFACE_SIDE_STYLE ('',( #240 ) ) ;
#384 = AXIS2_PLACEMENT_3D ( 'NONE', #213, #278, #397 ) ;
#385 = EDGE_CURVE ( 'NONE', #109, #187, #61, .T. ) ;
#386 = ORIENTED_EDGE ( 'NONE', *, *, #111, .F. ) ;
#387 = ORIENTED_EDGE ( 'NONE', *, *, #356, .F. ) ;
#388 = ORIENTED_EDGE ( 'NONE', *, *, #367, .T. ) ;
#389 = EDGE_CURVE ( 'NONE', #187, #65, #76, .T. ) ;
#390 = COLOUR_RGB ( '',0.7921568627450980005, 0.8196078431372548767, 0.9333333333333333481 ) ;
#391 =( NAMED_UNIT ( * ) SI_UNIT ( $, .STERADIAN. ) SOLID_ANGLE_UNIT ( ) );
#392 = LINE ( 'NONE', #177, #302 ) ;
#393 = CARTESIAN_POINT ( 'NONE',  ( 0.5000000000000001110, 6.123233995736767268E-17, 0.1675556226726758746 ) ) ;
#394 = ADVANCED_FACE ( 'NONE', ( #323 ), #337, .T. ) ;
#395 = EDGE_CURVE ( 'NONE', #65, #320, #10, .T. ) ;
#396 = DIRECTION ( 'NONE',  ( -0.000000000000000000, -0.000000000000000000, -1.000000000000000000 ) ) ;
#397 = DIRECTION ( 'NONE',  ( -1.000000000000000000, 0.000000000000000000, 0.000000000000000000 ) ) ;
#398 = DIRECTION ( 'NONE',  ( -0.000000000000000000, -0.000000000000000000, -1.000000000000000000 ) ) ;
#399 = COLOUR_RGB ( '',0.7921568627450980005, 0.8196078431372548767, 0.9333333333333333481 ) ;
#400 = ORIENTED_EDGE ( 'NONE', *, *, #107, .T. ) ;
#401 = DIRECTION ( 'NONE',  ( -1.000000000000000000, 0.000000000000000000, 0.000000000000000000 ) ) ;
#402 = DIRECTION ( 'NONE',  ( -0.000000000000000000, -0.000000000000000000, -1.000000000000000000 ) ) ;
#403 = DIRECTION ( 'NONE',  ( -0.000000000000000000, -0.000000000000000000, -1.000000000000000000 ) ) ;
ENDSEC;
END-ISO-10303-21;
