ISO-10303-21;
HEADER;
FILE_DESCRIPTION (( 'STEP AP214' ),
    '1' );
FILE_NAME ('715103.STEP',
    '2024-01-01T06:43:40',
    ( '' ),
    ( '' ),
    'SwSTEP 2.0',
    'SolidWorks 2022',
    '' );
FILE_SCHEMA (( 'AUTOMOTIVE_DESIGN' ));
ENDSEC;

DATA;
#1 = AXIS2_PLACEMENT_3D ( 'NONE', #268, #233, #212 ) ;
#2 = VECTOR ( 'NONE', #283, 39.37007874015748143 ) ;
#3 = CARTESIAN_POINT ( 'NONE',  ( 0.000000000000000000, 0.000000000000000000, 0.8149999999999999467 ) ) ;
#4 = DIRECTION ( 'NONE',  ( -0.000000000000000000, 1.000000000000000000, -0.000000000000000000 ) ) ;
#5 = ORIENTED_EDGE ( 'NONE', *, *, #396, .T. ) ;
#6 = ADVANCED_FACE ( 'NONE', ( #359 ), #54, .T. ) ;
#7 = CARTESIAN_POINT ( 'NONE',  ( 0.000000000000000000, -0.2084232335022684346, 0.000000000000000000 ) ) ;
#8 = EDGE_LOOP ( 'NONE', ( #288, #234, #51, #150 ) ) ;
#9 =( GEOMETRIC_REPRESENTATION_CONTEXT ( 3 ) GLOBAL_UNCERTAINTY_ASSIGNED_CONTEXT ( ( #38 ) ) GLOBAL_UNIT_ASSIGNED_CONTEXT ( ( #147, #23, #356 ) ) REPRESENTATION_CONTEXT ( 'NONE', 'WORKASPACE' ) );
#10 = CARTESIAN_POINT ( 'NONE',  ( 0.000000000000000000, 0.000000000000000000, 0.000000000000000000 ) ) ;
#11 = AXIS2_PLACEMENT_3D ( 'NONE', #141, #169, #98 ) ;
#12 = ORIENTED_EDGE ( 'NONE', *, *, #202, .F. ) ;
#13 = ADVANCED_FACE ( 'NONE', ( #330 ), #177, .T. ) ;
#14 = CARTESIAN_POINT ( 'NONE',  ( 0.000000000000000000, -0.2084232335022684346, 0.7499999999999998890 ) ) ;
#15 = ORIENTED_EDGE ( 'NONE', *, *, #375, .T. ) ;
#16 = SURFACE_STYLE_USAGE ( .BOTH. , #153 ) ;
#17 = ORIENTED_EDGE ( 'NONE', *, *, #144, .F. ) ;
#18 = DIRECTION ( 'NONE',  ( 0.000000000000000000, -0.000000000000000000, -1.000000000000000000 ) ) ;
#19 = STYLED_ITEM ( 'NONE', ( #160 ), #159 ) ;
#20 = LENGTH_MEASURE_WITH_UNIT ( LENGTH_MEASURE( 0.02539999999999999897 ), #301 );
#21 = EDGE_LOOP ( 'NONE', ( #264, #205 ) ) ;
#22 = EDGE_CURVE ( 'NONE', #168, #315, #236, .T. ) ;
#23 =( NAMED_UNIT ( * ) PLANE_ANGLE_UNIT ( ) SI_UNIT ( $, .RADIAN. ) );
#24 = ORIENTED_EDGE ( 'NONE', *, *, #126, .F. ) ;
#25 = PRESENTATION_LAYER_ASSIGNMENT (  '', '', ( #325 ) ) ;
#26 = APPLICATION_PROTOCOL_DEFINITION ( 'draft international standard', 'automotive_design', 1998, #379 ) ;
#27 = CARTESIAN_POINT ( 'NONE',  ( 1.322618543079141493E-16, 0.000000000000000000, -1.080000000000000071 ) ) ;
#28 = DIRECTION ( 'NONE',  ( 0.000000000000000000, -0.000000000000000000, -1.000000000000000000 ) ) ;
#29 = DIRECTION ( 'NONE',  ( -0.000000000000000000, 1.000000000000000000, -0.000000000000000000 ) ) ;
#30 = DIMENSIONAL_EXPONENTS ( 1.000000000000000000, 0.000000000000000000, 0.000000000000000000, 0.000000000000000000, 0.000000000000000000, 0.000000000000000000, 0.000000000000000000 ) ;
#31 =( LENGTH_UNIT ( ) NAMED_UNIT ( * ) SI_UNIT ( $, .METRE. ) );
#32 = DIRECTION ( 'NONE',  ( 0.000000000000000000, 0.000000000000000000, 1.000000000000000000 ) ) ;
#33 = ADVANCED_FACE ( 'NONE', ( #87 ), #85, .F. ) ;
#34 = DIRECTION ( 'NONE',  ( -0.000000000000000000, 1.000000000000000000, -0.000000000000000000 ) ) ;
#35 = CIRCLE ( 'NONE', #60, 0.6850000000000001643 ) ;
#36 = CARTESIAN_POINT ( 'NONE',  ( 9.980871413050927492E-17, 0.000000000000000000, -0.8149999999999999467 ) ) ;
#37 = ORIENTED_EDGE ( 'NONE', *, *, #185, .F. ) ;
#38 = UNCERTAINTY_MEASURE_WITH_UNIT (LENGTH_MEASURE( 1.000000000000000082E-05 ), #147, 'distance_accuracy_value', 'NONE');
#39 = DIRECTION ( 'NONE',  ( 0.000000000000000000, 0.000000000000000000, 1.000000000000000000 ) ) ;
#40 = ORIENTED_EDGE ( 'NONE', *, *, #144, .T. ) ;
#41 = DIRECTION ( 'NONE',  ( 1.182917971378671814E-16, 0.2588190451025149663, -0.9659258262890698665 ) ) ;
#42 = EDGE_LOOP ( 'NONE', ( #140, #45 ) ) ;
#43 = EDGE_CURVE ( 'NONE', #107, #226, #386, .T. ) ;
#44 = DIRECTION ( 'NONE',  ( -0.000000000000000000, 1.000000000000000000, -0.000000000000000000 ) ) ;
#45 = ORIENTED_EDGE ( 'NONE', *, *, #310, .F. ) ;
#46 = ORIENTED_EDGE ( 'NONE', *, *, #163, .F. ) ;
#47 = CARTESIAN_POINT ( 'NONE',  ( 8.388830574159371848E-17, 0.000000000000000000, -0.6850000000000001643 ) ) ;
#48 = AXIS2_PLACEMENT_3D ( 'NONE', #218, #364, #339 ) ;
#49 = AXIS2_PLACEMENT_3D ( 'NONE', #298, #296, #84 ) ;
#50 = CARTESIAN_POINT ( 'NONE',  ( 0.000000000000000000, -0.1000000000000000056, 0.6850000000000001643 ) ) ;
#51 = ORIENTED_EDGE ( 'NONE', *, *, #262, .T. ) ;
#52 = AXIS2_PLACEMENT_3D ( 'NONE', #10, #225, #348 ) ;
#53 = CARTESIAN_POINT ( 'NONE',  ( 0.000000000000000000, 0.000000000000000000, 0.7499999999999998890 ) ) ;
#54 = CYLINDRICAL_SURFACE ( 'NONE', #265, 0.7499999999999998890 ) ;
#55 = DIRECTION ( 'NONE',  ( -0.000000000000000000, 1.000000000000000000, -0.000000000000000000 ) ) ;
#56 = ORIENTED_EDGE ( 'NONE', *, *, #300, .F. ) ;
#57 = CIRCLE ( 'NONE', #193, 0.8149999999999999467 ) ;
#58 =( GEOMETRIC_REPRESENTATION_CONTEXT ( 3 ) GLOBAL_UNCERTAINTY_ASSIGNED_CONTEXT ( ( #344 ) ) GLOBAL_UNIT_ASSIGNED_CONTEXT ( ( #329, #108, #322 ) ) REPRESENTATION_CONTEXT ( 'NONE', 'WORKASPACE' ) );
#59 = CARTESIAN_POINT ( 'NONE',  ( 0.000000000000000000, 0.000000000000000000, 0.000000000000000000 ) ) ;
#60 = AXIS2_PLACEMENT_3D ( 'NONE', #314, #287, #165 ) ;
#61 = DIRECTION ( 'NONE',  ( 0.000000000000000000, 0.000000000000000000, 1.000000000000000000 ) ) ;
#62 = CARTESIAN_POINT ( 'NONE',  ( 0.000000000000000000, 0.000000000000000000, 0.000000000000000000 ) ) ;
#63 = APPLICATION_PROTOCOL_DEFINITION ( 'draft international standard', 'automotive_design', 1998, #260 ) ;
#64 = ADVANCED_FACE ( 'NONE', ( #334, #294 ), #355, .F. ) ;
#65 = VECTOR ( 'NONE', #353, 39.37007874015748143 ) ;
#66 = SURFACE_STYLE_USAGE ( .BOTH. , #189 ) ;
#67 = DIRECTION ( 'NONE',  ( -0.000000000000000000, 1.000000000000000000, -0.000000000000000000 ) ) ;
#68 = ADVANCED_FACE ( 'NONE', ( #149, #261 ), #389, .F. ) ;
#69 = LINE ( 'NONE', #14, #100 ) ;
#70 = CIRCLE ( 'NONE', #285, 1.080000000000000071 ) ;
#71 = VECTOR ( 'NONE', #4, 39.37007874015748143 ) ;
#72 = LINE ( 'NONE', #3, #71 ) ;
#73 = ORIENTED_EDGE ( 'NONE', *, *, #126, .T. ) ;
#74 = CARTESIAN_POINT ( 'NONE',  ( 0.000000000000000000, 0.000000000000000000, 0.000000000000000000 ) ) ;
#75 = FACE_OUTER_BOUND ( 'NONE', #136, .T. ) ;
#76 = ORIENTED_EDGE ( 'NONE', *, *, #86, .F. ) ;
#77 = FILL_AREA_STYLE_COLOUR ( '', #352 ) ;
#78 = CARTESIAN_POINT ( 'NONE',  ( 0.8149999999999999467, 0.000000000000000000, 0.000000000000000000 ) ) ;
#79 = PRODUCT_RELATED_PRODUCT_CATEGORY ( 'part', '', ( #94 ) ) ;
#80 = VERTEX_POINT ( 'NONE', #95 ) ;
#81 = CARTESIAN_POINT ( 'NONE',  ( 1.120551821219828292E-16, -0.2084232335022684346, -0.7499999999999998890 ) ) ;
#82 = ORIENTED_EDGE ( 'NONE', *, *, #152, .F. ) ;
#83 =( GEOMETRIC_REPRESENTATION_CONTEXT ( 3 ) GLOBAL_UNCERTAINTY_ASSIGNED_CONTEXT ( ( #195 ) ) GLOBAL_UNIT_ASSIGNED_CONTEXT ( ( #127, #217, #402 ) ) REPRESENTATION_CONTEXT ( 'NONE', 'WORKASPACE' ) );
#84 = DIRECTION ( 'NONE',  ( 0.000000000000000000, 0.000000000000000000, 1.000000000000000000 ) ) ;
#85 = CYLINDRICAL_SURFACE ( 'NONE', #1, 0.8149999999999999467 ) ;
#86 = EDGE_CURVE ( 'NONE', #250, #168, #397, .T. ) ;
#87 = FACE_OUTER_BOUND ( 'NONE', #8, .T. ) ;
#88 = CARTESIAN_POINT ( 'NONE',  ( 0.000000000000000000, 0.000000000000000000, 1.080000000000000071 ) ) ;
#89 = DIRECTION ( 'NONE',  ( -0.000000000000000000, 1.000000000000000000, -0.000000000000000000 ) ) ;
#90 = ADVANCED_FACE ( 'NONE', ( #124 ), #368, .F. ) ;
#91 = CARTESIAN_POINT ( 'NONE',  ( 9.184850993605148438E-17, -0.7500000000000002220, -0.7500000000000001110 ) ) ;
#92 = AXIS2_PLACEMENT_3D ( 'NONE', #113, #304, #28 ) ;
#93 = FACE_OUTER_BOUND ( 'NONE', #105, .T. ) ;
#94 = PRODUCT ( '715103', '715103', '', ( #400 ) ) ;
#95 = CARTESIAN_POINT ( 'NONE',  ( 0.000000000000000000, 0.000000000000000000, 1.080000000000000071 ) ) ;
#96 = PRODUCT_DEFINITION ( 'UNKNOWN', '', #276, #282 ) ;
#97 = DIRECTION ( 'NONE',  ( -0.000000000000000000, 1.000000000000000000, -0.000000000000000000 ) ) ;
#98 = DIRECTION ( 'NONE',  ( 0.000000000000000000, 0.000000000000000000, 1.000000000000000000 ) ) ;
#99 = ORIENTED_EDGE ( 'NONE', *, *, #86, .T. ) ;
#100 = VECTOR ( 'NONE', #252, 39.37007874015748143 ) ;
#101 = CARTESIAN_POINT ( 'NONE',  ( 0.000000000000000000, 0.000000000000000000, 0.000000000000000000 ) ) ;
#102 = ORIENTED_EDGE ( 'NONE', *, *, #375, .F. ) ;
#103 = CARTESIAN_POINT ( 'NONE',  ( 0.000000000000000000, -0.1000000000000000056, 0.000000000000000000 ) ) ;
#104 = EDGE_CURVE ( 'NONE', #381, #327, #57, .T. ) ;
#105 = EDGE_LOOP ( 'NONE', ( #37, #121, #231, #281 ) ) ;
#106 = CARTESIAN_POINT ( 'NONE',  ( 0.000000000000000000, -0.2084232335022684346, 0.7499999999999998890 ) ) ;
#107 = VERTEX_POINT ( 'NONE', #403 ) ;
#108 =( NAMED_UNIT ( * ) PLANE_ANGLE_UNIT ( ) SI_UNIT ( $, .RADIAN. ) );
#109 = COLOUR_RGB ( '',0.6470588235294117974, 0.6196078431372549211, 0.5882352941176470784 ) ;
#110 = ORIENTED_EDGE ( 'NONE', *, *, #245, .T. ) ;
#111 = ADVANCED_FACE ( 'NONE', ( #93 ), #247, .F. ) ;
#112 = CARTESIAN_POINT ( 'NONE',  ( 0.000000000000000000, -0.1000000000000000056, 0.000000000000000000 ) ) ;
#113 = CARTESIAN_POINT ( 'NONE',  ( 0.6850000000000001643, -0.1000000000000000056, 0.000000000000000000 ) ) ;
#114 = DIRECTION ( 'NONE',  ( -0.000000000000000000, 1.000000000000000000, -0.000000000000000000 ) ) ;
#115 = VERTEX_POINT ( 'NONE', #91 ) ;
#116 =( LENGTH_UNIT ( ) NAMED_UNIT ( * ) SI_UNIT ( $, .METRE. ) );
#117 = ADVANCED_FACE ( 'NONE', ( #308, #241 ), #129, .F. ) ;
#118 = EDGE_LOOP ( 'NONE', ( #197, #238 ) ) ;
#119 = CIRCLE ( 'NONE', #224, 1.080000000000000071 ) ;
#120 = SHAPE_DEFINITION_REPRESENTATION ( #309, #223 ) ;
#121 = ORIENTED_EDGE ( 'NONE', *, *, #43, .T. ) ;
#122 = DIRECTION ( 'NONE',  ( -0.000000000000000000, 1.000000000000000000, -0.000000000000000000 ) ) ;
#123 = AXIS2_PLACEMENT_3D ( 'NONE', #274, #89, #369 ) ;
#124 = FACE_OUTER_BOUND ( 'NONE', #303, .T. ) ;
#125 = AXIS2_PLACEMENT_3D ( 'NONE', #103, #380, #350 ) ;
#126 = EDGE_CURVE ( 'NONE', #115, #323, #256, .T. ) ;
#127 =( CONVERSION_BASED_UNIT ( 'INCH', #162 ) LENGTH_UNIT ( ) NAMED_UNIT ( #401 ) );
#128 = CARTESIAN_POINT ( 'NONE',  ( 0.000000000000000000, -0.1000000000000000056, 0.000000000000000000 ) ) ;
#129 = PLANE ( 'NONE',  #213 ) ;
#130 = CARTESIAN_POINT ( 'NONE',  ( 0.000000000000000000, -0.7500000000000002220, 0.000000000000000000 ) ) ;
#131 = EDGE_LOOP ( 'NONE', ( #154, #222, #76, #56 ) ) ;
#132 = CARTESIAN_POINT ( 'NONE',  ( 0.000000000000000000, -0.7500000000000002220, 0.7500000000000001110 ) ) ;
#133 = EDGE_LOOP ( 'NONE', ( #15, #255, #384, #332 ) ) ;
#134 = FACE_OUTER_BOUND ( 'NONE', #349, .T. ) ;
#135 = CIRCLE ( 'NONE', #306, 0.8149999999999999467 ) ;
#136 = EDGE_LOOP ( 'NONE', ( #46, #142, #290, #17 ) ) ;
#137 = ADVANCED_FACE ( 'NONE', ( #215 ), #243, .F. ) ;
#138 = CIRCLE ( 'NONE', #148, 0.6850000000000001643 ) ;
#139 = CARTESIAN_POINT ( 'NONE',  ( 0.000000000000000000, -0.2084232335022684346, 0.000000000000000000 ) ) ;
#140 = ORIENTED_EDGE ( 'NONE', *, *, #207, .F. ) ;
#141 = CARTESIAN_POINT ( 'NONE',  ( 0.000000000000000000, -0.2084232335022684346, 0.000000000000000000 ) ) ;
#142 = ORIENTED_EDGE ( 'NONE', *, *, #176, .T. ) ;
#143 = LENGTH_MEASURE_WITH_UNIT ( LENGTH_MEASURE( 0.02539999999999999897 ), #116 );
#144 = EDGE_CURVE ( 'NONE', #168, #250, #271, .T. ) ;
#145 = VECTOR ( 'NONE', #335, 39.37007874015748143 ) ;
#146 = ORIENTED_EDGE ( 'NONE', *, *, #245, .F. ) ;
#147 =( CONVERSION_BASED_UNIT ( 'INCH', #20 ) LENGTH_UNIT ( ) NAMED_UNIT ( #30 ) );
#148 = AXIS2_PLACEMENT_3D ( 'NONE', #196, #280, #248 ) ;
#149 = FACE_BOUND ( 'NONE', #42, .T. ) ;
#150 = ORIENTED_EDGE ( 'NONE', *, *, #321, .T. ) ;
#151 = CARTESIAN_POINT ( 'NONE',  ( 0.000000000000000000, 0.000000000000000000, 0.000000000000000000 ) ) ;
#152 = EDGE_CURVE ( 'NONE', #250, #80, #336, .T. ) ;
#153 = SURFACE_SIDE_STYLE ('',( #230 ) ) ;
#154 = ORIENTED_EDGE ( 'NONE', *, *, #278, .T. ) ;
#155 = CARTESIAN_POINT ( 'NONE',  ( 0.000000000000000000, -0.1199999999999999956, 0.000000000000000000 ) ) ;
#156 = CARTESIAN_POINT ( 'NONE',  ( 1.322618543079141493E-16, -0.1199999999999999956, -1.080000000000000071 ) ) ;
#157 = EDGE_CURVE ( 'NONE', #80, #315, #70, .T. ) ;
#158 = AXIS2_PLACEMENT_3D ( 'NONE', #161, #190, #394 ) ;
#159 = MANIFOLD_SOLID_BREP ( 'Revolve1', #333 ) ;
#160 = PRESENTATION_STYLE_ASSIGNMENT (( #66 ) ) ;
#161 = CARTESIAN_POINT ( 'NONE',  ( 0.000000000000000000, 0.000000000000000000, 0.000000000000000000 ) ) ;
#162 = LENGTH_MEASURE_WITH_UNIT ( LENGTH_MEASURE( 0.02539999999999999897 ), #31 );
#163 = EDGE_CURVE ( 'NONE', #354, #168, #341, .T. ) ;
#164 = AXIS2_PLACEMENT_3D ( 'NONE', #395, #122, #275 ) ;
#165 = DIRECTION ( 'NONE',  ( 0.000000000000000000, 0.000000000000000000, 1.000000000000000000 ) ) ;
#166 = VECTOR ( 'NONE', #345, 39.37007874015748143 ) ;
#167 = CARTESIAN_POINT ( 'NONE',  ( 9.980871413050927492E-17, 0.000000000000000000, -0.8149999999999999467 ) ) ;
#168 = VERTEX_POINT ( 'NONE', #156 ) ;
#169 = DIRECTION ( 'NONE',  ( -0.000000000000000000, 1.000000000000000000, -0.000000000000000000 ) ) ;
#170 = VERTEX_POINT ( 'NONE', #221 ) ;
#171 = EDGE_CURVE ( 'NONE', #381, #320, #249, .T. ) ;
#172 = AXIS2_PLACEMENT_3D ( 'NONE', #78, #180, #18 ) ;
#173 = CYLINDRICAL_SURFACE ( 'NONE', #52, 1.080000000000000071 ) ;
#174 = ORIENTED_EDGE ( 'NONE', *, *, #152, .T. ) ;
#175 = CARTESIAN_POINT ( 'NONE',  ( 9.184850993605147205E-17, -0.2084232335022684346, -0.7499999999999998890 ) ) ;
#176 = EDGE_CURVE ( 'NONE', #354, #266, #387, .T. ) ;
#177 = CYLINDRICAL_SURFACE ( 'NONE', #293, 0.7499999999999998890 ) ;
#178 = DIRECTION ( 'NONE',  ( 0.000000000000000000, 0.000000000000000000, 1.000000000000000000 ) ) ;
#179 = VECTOR ( 'NONE', #210, 39.37007874015748143 ) ;
#180 = DIRECTION ( 'NONE',  ( 0.000000000000000000, -1.000000000000000000, 0.000000000000000000 ) ) ;
#181 = CARTESIAN_POINT ( 'NONE',  ( 0.000000000000000000, 0.000000000000000000, 0.000000000000000000 ) ) ;
#182 = VECTOR ( 'NONE', #55, 39.37007874015748143 ) ;
#183 = ORIENTED_EDGE ( 'NONE', *, *, #383, .T. ) ;
#184 = DIRECTION ( 'NONE',  ( -0.000000000000000000, 1.000000000000000000, -0.000000000000000000 ) ) ;
#185 = EDGE_CURVE ( 'NONE', #107, #378, #328, .T. ) ;
#186 = DIRECTION ( 'NONE',  ( -0.000000000000000000, 1.000000000000000000, -0.000000000000000000 ) ) ;
#187 = DIRECTION ( 'NONE',  ( 0.000000000000000000, 0.000000000000000000, 1.000000000000000000 ) ) ;
#188 = DIRECTION ( 'NONE',  ( 0.000000000000000000, 0.000000000000000000, 1.000000000000000000 ) ) ;
#189 = SURFACE_SIDE_STYLE ('',( #398 ) ) ;
#190 = DIRECTION ( 'NONE',  ( 0.000000000000000000, 0.000000000000000000, 1.000000000000000000 ) ) ;
#191 = DIRECTION ( 'NONE',  ( 0.000000000000000000, 0.000000000000000000, 1.000000000000000000 ) ) ;
#192 = LINE ( 'NONE', #289, #2 ) ;
#193 = AXIS2_PLACEMENT_3D ( 'NONE', #128, #269, #187 ) ;
#194 = CARTESIAN_POINT ( 'NONE',  ( 0.000000000000000000, 0.000000000000000000, 0.000000000000000000 ) ) ;
#195 = UNCERTAINTY_MEASURE_WITH_UNIT (LENGTH_MEASURE( 1.000000000000000082E-05 ), #127, 'distance_accuracy_value', 'NONE');
#196 = CARTESIAN_POINT ( 'NONE',  ( 0.000000000000000000, -0.1000000000000000056, 0.000000000000000000 ) ) ;
#197 = ORIENTED_EDGE ( 'NONE', *, *, #227, .T. ) ;
#198 = DIRECTION ( 'NONE',  ( -0.000000000000000000, 1.000000000000000000, -0.000000000000000000 ) ) ;
#199 = ORIENTED_EDGE ( 'NONE', *, *, #176, .F. ) ;
#200 = AXIS2_PLACEMENT_3D ( 'NONE', #59, #305, #246 ) ;
#201 = EDGE_LOOP ( 'NONE', ( #99, #284, #297, #82 ) ) ;
#202 = EDGE_CURVE ( 'NONE', #115, #354, #192, .T. ) ;
#203 = DIRECTION ( 'NONE',  ( -0.000000000000000000, 1.000000000000000000, -0.000000000000000000 ) ) ;
#204 = EDGE_LOOP ( 'NONE', ( #279, #292, #5, #343 ) ) ;
#205 = ORIENTED_EDGE ( 'NONE', *, *, #396, .F. ) ;
#206 = CIRCLE ( 'NONE', #346, 0.8149999999999999467 ) ;
#207 = EDGE_CURVE ( 'NONE', #362, #226, #138, .T. ) ;
#208 = ORIENTED_EDGE ( 'NONE', *, *, #157, .T. ) ;
#209 = LINE ( 'NONE', #390, #182 ) ;
#210 = DIRECTION ( 'NONE',  ( -0.000000000000000000, 1.000000000000000000, -0.000000000000000000 ) ) ;
#211 = DIMENSIONAL_EXPONENTS ( 1.000000000000000000, 0.000000000000000000, 0.000000000000000000, 0.000000000000000000, 0.000000000000000000, 0.000000000000000000, 0.000000000000000000 ) ;
#212 = DIRECTION ( 'NONE',  ( 0.000000000000000000, 0.000000000000000000, 1.000000000000000000 ) ) ;
#213 = AXIS2_PLACEMENT_3D ( 'NONE', #244, #219, #191 ) ;
#214 = AXIS2_PLACEMENT_3D ( 'NONE', #7, #198, #318 ) ;
#215 = FACE_OUTER_BOUND ( 'NONE', #204, .T. ) ;
#216 = CARTESIAN_POINT ( 'NONE',  ( 0.000000000000000000, -0.1199999999999999956, 0.000000000000000000 ) ) ;
#217 =( NAMED_UNIT ( * ) PLANE_ANGLE_UNIT ( ) SI_UNIT ( $, .RADIAN. ) );
#218 = CARTESIAN_POINT ( 'NONE',  ( 0.000000000000000000, -0.7500000000000002220, 0.000000000000000000 ) ) ;
#219 = DIRECTION ( 'NONE',  ( -0.000000000000000000, 1.000000000000000000, 0.000000000000000000 ) ) ;
#220 = DIRECTION ( 'NONE',  ( 0.000000000000000000, 0.000000000000000000, 1.000000000000000000 ) ) ;
#221 = CARTESIAN_POINT ( 'NONE',  ( 0.000000000000000000, 0.000000000000000000, 0.8149999999999999467 ) ) ;
#222 = ORIENTED_EDGE ( 'NONE', *, *, #163, .T. ) ;
#223 = ADVANCED_BREP_SHAPE_REPRESENTATION ( '715103', ( #159, #158 ), #9 ) ;
#224 = AXIS2_PLACEMENT_3D ( 'NONE', #194, #34, #372 ) ;
#225 = DIRECTION ( 'NONE',  ( -0.000000000000000000, 1.000000000000000000, -0.000000000000000000 ) ) ;
#226 = VERTEX_POINT ( 'NONE', #373 ) ;
#227 = EDGE_CURVE ( 'NONE', #378, #107, #35, .T. ) ;
#228 = ORIENTED_EDGE ( 'NONE', *, *, #207, .T. ) ;
#229 = AXIS2_PLACEMENT_3D ( 'NONE', #155, #367, #188 ) ;
#230 = SURFACE_STYLE_FILL_AREA ( #263 ) ;
#231 = ORIENTED_EDGE ( 'NONE', *, *, #310, .T. ) ;
#232 = AXIS2_PLACEMENT_3D ( 'NONE', #291, #203, #388 ) ;
#233 = DIRECTION ( 'NONE',  ( -0.000000000000000000, 1.000000000000000000, -0.000000000000000000 ) ) ;
#234 = ORIENTED_EDGE ( 'NONE', *, *, #383, .F. ) ;
#235 = PRESENTATION_STYLE_ASSIGNMENT (( #16 ) ) ;
#236 = LINE ( 'NONE', #27, #363 ) ;
#237 = CIRCLE ( 'NONE', #242, 0.7499999999999998890 ) ;
#238 = ORIENTED_EDGE ( 'NONE', *, *, #185, .T. ) ;
#239 = ORIENTED_EDGE ( 'NONE', *, *, #340, .T. ) ;
#240 = ADVANCED_FACE ( 'NONE', ( #311 ), #259, .T. ) ;
#241 = FACE_BOUND ( 'NONE', #118, .T. ) ;
#242 = AXIS2_PLACEMENT_3D ( 'NONE', #139, #316, #342 ) ;
#243 = CYLINDRICAL_SURFACE ( 'NONE', #123, 0.8149999999999999467 ) ;
#244 = CARTESIAN_POINT ( 'NONE',  ( 0.7500000000000001110, -0.7500000000000002220, 0.000000000000000000 ) ) ;
#245 = EDGE_CURVE ( 'NONE', #315, #80, #119, .T. ) ;
#246 = DIRECTION ( 'NONE',  ( 0.000000000000000000, 0.000000000000000000, 1.000000000000000000 ) ) ;
#247 = CYLINDRICAL_SURFACE ( 'NONE', #164, 0.6850000000000001643 ) ;
#248 = DIRECTION ( 'NONE',  ( 0.000000000000000000, 0.000000000000000000, 1.000000000000000000 ) ) ;
#249 = LINE ( 'NONE', #167, #166 ) ;
#250 = VERTEX_POINT ( 'NONE', #277 ) ;
#251 = CYLINDRICAL_SURFACE ( 'NONE', #338, 1.080000000000000071 ) ;
#252 = DIRECTION ( 'NONE',  ( 0.000000000000000000, 0.2588190451025149663, 0.9659258262890698665 ) ) ;
#253 = ORIENTED_EDGE ( 'NONE', *, *, #104, .T. ) ;
#254 = DIRECTION ( 'NONE',  ( 0.000000000000000000, 0.000000000000000000, 1.000000000000000000 ) ) ;
#255 = ORIENTED_EDGE ( 'NONE', *, *, #202, .T. ) ;
#256 = CIRCLE ( 'NONE', #48, 0.7500000000000001110 ) ;
#257 = CIRCLE ( 'NONE', #49, 0.7500000000000001110 ) ;
#258 = DIRECTION ( 'NONE',  ( 0.000000000000000000, 0.000000000000000000, 1.000000000000000000 ) ) ;
#259 = CONICAL_SURFACE ( 'NONE', #214, 0.7499999999999998890, 1.308996938995753201 ) ;
#260 = APPLICATION_CONTEXT ( 'automotive_design' ) ;
#261 = FACE_OUTER_BOUND ( 'NONE', #361, .T. ) ;
#262 = EDGE_CURVE ( 'NONE', #327, #170, #72, .T. ) ;
#263 = FILL_AREA_STYLE ('',( #77 ) ) ;
#264 = ORIENTED_EDGE ( 'NONE', *, *, #321, .F. ) ;
#265 = AXIS2_PLACEMENT_3D ( 'NONE', #393, #186, #357 ) ;
#266 = VERTEX_POINT ( 'NONE', #106 ) ;
#267 = ADVANCED_FACE ( 'NONE', ( #134 ), #251, .T. ) ;
#268 = CARTESIAN_POINT ( 'NONE',  ( 0.000000000000000000, 0.000000000000000000, 0.000000000000000000 ) ) ;
#269 = DIRECTION ( 'NONE',  ( -0.000000000000000000, 1.000000000000000000, -0.000000000000000000 ) ) ;
#270 = FILL_AREA_STYLE ('',( #337 ) ) ;
#271 = CIRCLE ( 'NONE', #324, 1.080000000000000071 ) ;
#272 = VECTOR ( 'NONE', #41, 39.37007874015748143 ) ;
#273 = ADVANCED_FACE ( 'NONE', ( #376 ), #173, .T. ) ;
#274 = CARTESIAN_POINT ( 'NONE',  ( 0.000000000000000000, 0.000000000000000000, 0.000000000000000000 ) ) ;
#275 = DIRECTION ( 'NONE',  ( 0.000000000000000000, 0.000000000000000000, 1.000000000000000000 ) ) ;
#276 = PRODUCT_DEFINITION_FORMATION_WITH_SPECIFIED_SOURCE ( 'ANY', '', #94, .NOT_KNOWN. ) ;
#277 = CARTESIAN_POINT ( 'NONE',  ( 0.000000000000000000, -0.1199999999999999956, 1.080000000000000071 ) ) ;
#278 = EDGE_CURVE ( 'NONE', #266, #354, #237, .T. ) ;
#279 = ORIENTED_EDGE ( 'NONE', *, *, #104, .F. ) ;
#280 = DIRECTION ( 'NONE',  ( -0.000000000000000000, 1.000000000000000000, -0.000000000000000000 ) ) ;
#281 = ORIENTED_EDGE ( 'NONE', *, *, #370, .F. ) ;
#282 = PRODUCT_DEFINITION_CONTEXT ( 'detailed design', #260, 'design' ) ;
#283 = DIRECTION ( 'NONE',  ( -0.000000000000000000, 1.000000000000000000, -0.000000000000000000 ) ) ;
#284 = ORIENTED_EDGE ( 'NONE', *, *, #22, .T. ) ;
#285 = AXIS2_PLACEMENT_3D ( 'NONE', #62, #29, #61 ) ;
#286 = AXIS2_PLACEMENT_3D ( 'NONE', #112, #114, #319 ) ;
#287 = DIRECTION ( 'NONE',  ( -0.000000000000000000, 1.000000000000000000, -0.000000000000000000 ) ) ;
#288 = ORIENTED_EDGE ( 'NONE', *, *, #171, .F. ) ;
#289 = CARTESIAN_POINT ( 'NONE',  ( 9.184850993605147205E-17, 0.000000000000000000, -0.7499999999999998890 ) ) ;
#290 = ORIENTED_EDGE ( 'NONE', *, *, #300, .T. ) ;
#291 = CARTESIAN_POINT ( 'NONE',  ( 0.000000000000000000, -0.2084232335022684346, 0.000000000000000000 ) ) ;
#292 = ORIENTED_EDGE ( 'NONE', *, *, #171, .T. ) ;
#293 = AXIS2_PLACEMENT_3D ( 'NONE', #151, #184, #258 ) ;
#294 = FACE_OUTER_BOUND ( 'NONE', #347, .T. ) ;
#295 = PRESENTATION_LAYER_ASSIGNMENT (  '', '', ( #19 ) ) ;
#296 = DIRECTION ( 'NONE',  ( -0.000000000000000000, 1.000000000000000000, -0.000000000000000000 ) ) ;
#297 = ORIENTED_EDGE ( 'NONE', *, *, #157, .F. ) ;
#298 = CARTESIAN_POINT ( 'NONE',  ( 0.000000000000000000, -0.7500000000000002220, 0.000000000000000000 ) ) ;
#299 = EDGE_LOOP ( 'NONE', ( #12, #73, #239, #199 ) ) ;
#300 = EDGE_CURVE ( 'NONE', #266, #250, #69, .T. ) ;
#301 =( LENGTH_UNIT ( ) NAMED_UNIT ( * ) SI_UNIT ( $, .METRE. ) );
#302 = MECHANICAL_DESIGN_GEOMETRIC_PRESENTATION_REPRESENTATION (  '', ( #325 ), #58 ) ;
#303 = EDGE_LOOP ( 'NONE', ( #317, #351, #391, #228 ) ) ;
#304 = DIRECTION ( 'NONE',  ( 0.000000000000000000, -1.000000000000000000, 0.000000000000000000 ) ) ;
#305 = DIRECTION ( 'NONE',  ( -0.000000000000000000, 1.000000000000000000, -0.000000000000000000 ) ) ;
#306 = AXIS2_PLACEMENT_3D ( 'NONE', #181, #331, #178 ) ;
#307 = MECHANICAL_DESIGN_GEOMETRIC_PRESENTATION_REPRESENTATION (  '', ( #19 ), #83 ) ;
#308 = FACE_OUTER_BOUND ( 'NONE', #313, .T. ) ;
#309 = PRODUCT_DEFINITION_SHAPE ( 'NONE', 'NONE',  #96 ) ;
#310 = EDGE_CURVE ( 'NONE', #226, #362, #366, .T. ) ;
#311 = FACE_OUTER_BOUND ( 'NONE', #131, .T. ) ;
#312 = CARTESIAN_POINT ( 'NONE',  ( 1.322618543079141493E-16, 0.000000000000000000, -1.080000000000000071 ) ) ;
#313 = EDGE_LOOP ( 'NONE', ( #102, #24 ) ) ;
#314 = CARTESIAN_POINT ( 'NONE',  ( 0.000000000000000000, -0.7500000000000002220, 0.000000000000000000 ) ) ;
#315 = VERTEX_POINT ( 'NONE', #312 ) ;
#316 = DIRECTION ( 'NONE',  ( -0.000000000000000000, 1.000000000000000000, -0.000000000000000000 ) ) ;
#317 = ORIENTED_EDGE ( 'NONE', *, *, #43, .F. ) ;
#318 = DIRECTION ( 'NONE',  ( 0.000000000000000000, 0.000000000000000000, 1.000000000000000000 ) ) ;
#319 = DIRECTION ( 'NONE',  ( 0.000000000000000000, 0.000000000000000000, 1.000000000000000000 ) ) ;
#320 = VERTEX_POINT ( 'NONE', #36 ) ;
#321 = EDGE_CURVE ( 'NONE', #170, #320, #206, .T. ) ;
#322 =( NAMED_UNIT ( * ) SI_UNIT ( $, .STERADIAN. ) SOLID_ANGLE_UNIT ( ) );
#323 = VERTEX_POINT ( 'NONE', #132 ) ;
#324 = AXIS2_PLACEMENT_3D ( 'NONE', #216, #371, #32 ) ;
#325 = STYLED_ITEM ( 'NONE', ( #235 ), #223 ) ;
#326 = CARTESIAN_POINT ( 'NONE',  ( 0.000000000000000000, -0.7500000000000002220, 0.6850000000000001643 ) ) ;
#327 = VERTEX_POINT ( 'NONE', #382 ) ;
#328 = CIRCLE ( 'NONE', #377, 0.6850000000000001643 ) ;
#329 =( CONVERSION_BASED_UNIT ( 'INCH', #143 ) LENGTH_UNIT ( ) NAMED_UNIT ( #211 ) );
#330 = FACE_OUTER_BOUND ( 'NONE', #299, .T. ) ;
#331 = DIRECTION ( 'NONE',  ( -0.000000000000000000, 1.000000000000000000, -0.000000000000000000 ) ) ;
#332 = ORIENTED_EDGE ( 'NONE', *, *, #340, .F. ) ;
#333 = CLOSED_SHELL ( 'NONE', ( #111, #6, #240, #273, #137, #33, #64, #267, #365, #13, #117, #90, #68 ) ) ;
#334 = FACE_BOUND ( 'NONE', #21, .T. ) ;
#335 = DIRECTION ( 'NONE',  ( -0.000000000000000000, 1.000000000000000000, -0.000000000000000000 ) ) ;
#336 = LINE ( 'NONE', #88, #145 ) ;
#337 = FILL_AREA_STYLE_COLOUR ( '', #109 ) ;
#338 = AXIS2_PLACEMENT_3D ( 'NONE', #101, #97, #220 ) ;
#339 = DIRECTION ( 'NONE',  ( 0.000000000000000000, 0.000000000000000000, 1.000000000000000000 ) ) ;
#340 = EDGE_CURVE ( 'NONE', #323, #266, #360, .T. ) ;
#341 = LINE ( 'NONE', #175, #272 ) ;
#342 = DIRECTION ( 'NONE',  ( 0.000000000000000000, 0.000000000000000000, 1.000000000000000000 ) ) ;
#343 = ORIENTED_EDGE ( 'NONE', *, *, #262, .F. ) ;
#344 = UNCERTAINTY_MEASURE_WITH_UNIT (LENGTH_MEASURE( 1.000000000000000082E-05 ), #329, 'distance_accuracy_value', 'NONE');
#345 = DIRECTION ( 'NONE',  ( -0.000000000000000000, 1.000000000000000000, -0.000000000000000000 ) ) ;
#346 = AXIS2_PLACEMENT_3D ( 'NONE', #74, #44, #254 ) ;
#347 = EDGE_LOOP ( 'NONE', ( #208, #110 ) ) ;
#348 = DIRECTION ( 'NONE',  ( 0.000000000000000000, 0.000000000000000000, 1.000000000000000000 ) ) ;
#349 = EDGE_LOOP ( 'NONE', ( #374, #40, #174, #146 ) ) ;
#350 = DIRECTION ( 'NONE',  ( 0.000000000000000000, 0.000000000000000000, 1.000000000000000000 ) ) ;
#351 = ORIENTED_EDGE ( 'NONE', *, *, #227, .F. ) ;
#352 = COLOUR_RGB ( '',0.6470588235294117974, 0.6196078431372549211, 0.5882352941176470784 ) ;
#353 = DIRECTION ( 'NONE',  ( -0.000000000000000000, 1.000000000000000000, -0.000000000000000000 ) ) ;
#354 = VERTEX_POINT ( 'NONE', #81 ) ;
#355 = PLANE ( 'NONE',  #172 ) ;
#356 =( NAMED_UNIT ( * ) SI_UNIT ( $, .STERADIAN. ) SOLID_ANGLE_UNIT ( ) );
#357 = DIRECTION ( 'NONE',  ( 0.000000000000000000, 0.000000000000000000, 1.000000000000000000 ) ) ;
#358 = CIRCLE ( 'NONE', #286, 0.8149999999999999467 ) ;
#359 = FACE_OUTER_BOUND ( 'NONE', #133, .T. ) ;
#360 = LINE ( 'NONE', #53, #65 ) ;
#361 = EDGE_LOOP ( 'NONE', ( #183, #253 ) ) ;
#362 = VERTEX_POINT ( 'NONE', #50 ) ;
#363 = VECTOR ( 'NONE', #392, 39.37007874015748143 ) ;
#364 = DIRECTION ( 'NONE',  ( -0.000000000000000000, 1.000000000000000000, -0.000000000000000000 ) ) ;
#365 = ADVANCED_FACE ( 'NONE', ( #75 ), #399, .T. ) ;
#366 = CIRCLE ( 'NONE', #125, 0.6850000000000001643 ) ;
#367 = DIRECTION ( 'NONE',  ( -0.000000000000000000, 1.000000000000000000, -0.000000000000000000 ) ) ;
#368 = CYLINDRICAL_SURFACE ( 'NONE', #200, 0.6850000000000001643 ) ;
#369 = DIRECTION ( 'NONE',  ( 0.000000000000000000, 0.000000000000000000, 1.000000000000000000 ) ) ;
#370 = EDGE_CURVE ( 'NONE', #378, #362, #209, .T. ) ;
#371 = DIRECTION ( 'NONE',  ( -0.000000000000000000, 1.000000000000000000, -0.000000000000000000 ) ) ;
#372 = DIRECTION ( 'NONE',  ( 0.000000000000000000, 0.000000000000000000, 1.000000000000000000 ) ) ;
#373 = CARTESIAN_POINT ( 'NONE',  ( 8.388830574159371848E-17, -0.1000000000000000056, -0.6850000000000001643 ) ) ;
#374 = ORIENTED_EDGE ( 'NONE', *, *, #22, .F. ) ;
#375 = EDGE_CURVE ( 'NONE', #323, #115, #257, .T. ) ;
#376 = FACE_OUTER_BOUND ( 'NONE', #201, .T. ) ;
#377 = AXIS2_PLACEMENT_3D ( 'NONE', #130, #67, #39 ) ;
#378 = VERTEX_POINT ( 'NONE', #326 ) ;
#379 = APPLICATION_CONTEXT ( 'automotive_design' ) ;
#380 = DIRECTION ( 'NONE',  ( -0.000000000000000000, 1.000000000000000000, -0.000000000000000000 ) ) ;
#381 = VERTEX_POINT ( 'NONE', #385 ) ;
#382 = CARTESIAN_POINT ( 'NONE',  ( 0.000000000000000000, -0.1000000000000000056, 0.8149999999999999467 ) ) ;
#383 = EDGE_CURVE ( 'NONE', #327, #381, #358, .T. ) ;
#384 = ORIENTED_EDGE ( 'NONE', *, *, #278, .F. ) ;
#385 = CARTESIAN_POINT ( 'NONE',  ( 9.980871413050927492E-17, -0.1000000000000000056, -0.8149999999999999467 ) ) ;
#386 = LINE ( 'NONE', #47, #179 ) ;
#387 = CIRCLE ( 'NONE', #11, 0.7499999999999998890 ) ;
#388 = DIRECTION ( 'NONE',  ( 0.000000000000000000, 0.000000000000000000, 1.000000000000000000 ) ) ;
#389 = PLANE ( 'NONE',  #92 ) ;
#390 = CARTESIAN_POINT ( 'NONE',  ( 0.000000000000000000, 0.000000000000000000, 0.6850000000000001643 ) ) ;
#391 = ORIENTED_EDGE ( 'NONE', *, *, #370, .T. ) ;
#392 = DIRECTION ( 'NONE',  ( -0.000000000000000000, 1.000000000000000000, -0.000000000000000000 ) ) ;
#393 = CARTESIAN_POINT ( 'NONE',  ( 0.000000000000000000, 0.000000000000000000, 0.000000000000000000 ) ) ;
#394 = DIRECTION ( 'NONE',  ( 1.000000000000000000, 0.000000000000000000, 0.000000000000000000 ) ) ;
#395 = CARTESIAN_POINT ( 'NONE',  ( 0.000000000000000000, 0.000000000000000000, 0.000000000000000000 ) ) ;
#396 = EDGE_CURVE ( 'NONE', #320, #170, #135, .T. ) ;
#397 = CIRCLE ( 'NONE', #229, 1.080000000000000071 ) ;
#398 = SURFACE_STYLE_FILL_AREA ( #270 ) ;
#399 = CONICAL_SURFACE ( 'NONE', #232, 0.7499999999999998890, 1.308996938995753201 ) ;
#400 = PRODUCT_CONTEXT ( 'NONE', #379, 'mechanical' ) ;
#401 = DIMENSIONAL_EXPONENTS ( 1.000000000000000000, 0.000000000000000000, 0.000000000000000000, 0.000000000000000000, 0.000000000000000000, 0.000000000000000000, 0.000000000000000000 ) ;
#402 =( NAMED_UNIT ( * ) SI_UNIT ( $, .STERADIAN. ) SOLID_ANGLE_UNIT ( ) );
#403 = CARTESIAN_POINT ( 'NONE',  ( 8.388830574159371848E-17, -0.7500000000000002220, -0.6850000000000001643 ) ) ;
ENDSEC;
END-ISO-10303-21;
