ISO-10303-21;
HEADER;
FILE_DESCRIPTION (( 'STEP AP214' ),
    '1' );
FILE_NAME ('715104.STEP',
    '2024-01-04T16:41:37',
    ( '' ),
    ( '' ),
    'SwSTEP 2.0',
    'SolidWorks 2022',
    '' );
FILE_SCHEMA (( 'AUTOMOTIVE_DESIGN' ));
ENDSEC;

DATA;
#1 = COLOUR_RGB ( '',0.6470588235294117974, 0.6196078431372549211, 0.5882352941176470784 ) ;
#2 = ORIENTED_EDGE ( 'NONE', *, *, #48, .F. ) ;
#3 = DIRECTION ( 'NONE',  ( -0.000000000000000000, 1.000000000000000000, -0.000000000000000000 ) ) ;
#4 = EDGE_LOOP ( 'NONE', ( #82, #205, #93, #191 ) ) ;
#5 = CARTESIAN_POINT ( 'NONE',  ( 0.000000000000000000, -0.1000000000000000194, 0.9350000000000001643 ) ) ;
#6 = ORIENTED_EDGE ( 'NONE', *, *, #124, .F. ) ;
#7 = CIRCLE ( 'NONE', #402, 1.474999999999999867 ) ;
#8 = AXIS2_PLACEMENT_3D ( 'NONE', #248, #212, #331 ) ;
#9 = ORIENTED_EDGE ( 'NONE', *, *, #166, .T. ) ;
#10 =( GEOMETRIC_REPRESENTATION_CONTEXT ( 3 ) GLOBAL_UNCERTAINTY_ASSIGNED_CONTEXT ( ( #309 ) ) GLOBAL_UNIT_ASSIGNED_CONTEXT ( ( #159, #307, #145 ) ) REPRESENTATION_CONTEXT ( 'NONE', 'WORKASPACE' ) );
#11 = EDGE_CURVE ( 'NONE', #291, #288, #269, .T. ) ;
#12 = CLOSED_SHELL ( 'NONE', ( #325, #65, #250, #342, #31, #102, #304, #182, #393, #315, #311, #362, #98 ) ) ;
#13 = ORIENTED_EDGE ( 'NONE', *, *, #24, .T. ) ;
#14 = CARTESIAN_POINT ( 'NONE',  ( 1.145044757202775302E-16, -0.1000000000000000194, -0.9350000000000001643 ) ) ;
#15 = DIRECTION ( 'NONE',  ( 0.000000000000000000, 0.000000000000000000, 1.000000000000000000 ) ) ;
#16 = EDGE_CURVE ( 'NONE', #294, #28, #168, .T. ) ;
#17 = ADVANCED_BREP_SHAPE_REPRESENTATION ( '715104', ( #231, #8 ), #10 ) ;
#18 = CARTESIAN_POINT ( 'NONE',  ( 1.145044757202775302E-16, -0.7500000000000001110, -0.9350000000000001643 ) ) ;
#19 = LENGTH_MEASURE_WITH_UNIT ( LENGTH_MEASURE( 0.02539999999999999897 ), #360 );
#20 = LINE ( 'NONE', #148, #382 ) ;
#21 = FACE_BOUND ( 'NONE', #266, .T. ) ;
#22 = APPLICATION_PROTOCOL_DEFINITION ( 'draft international standard', 'automotive_design', 1998, #26 ) ;
#23 = CIRCLE ( 'NONE', #254, 0.9350000000000001643 ) ;
#24 = EDGE_CURVE ( 'NONE', #347, #313, #243, .T. ) ;
#25 = PLANE ( 'NONE',  #322 ) ;
#26 = APPLICATION_CONTEXT ( 'automotive_design' ) ;
#27 = ORIENTED_EDGE ( 'NONE', *, *, #161, .T. ) ;
#28 = VERTEX_POINT ( 'NONE', #14 ) ;
#29 = LENGTH_MEASURE_WITH_UNIT ( LENGTH_MEASURE( 0.02539999999999999897 ), #211 );
#30 = CARTESIAN_POINT ( 'NONE',  ( 0.000000000000000000, -0.2472758664047799981, 1.000000000000000000 ) ) ;
#31 = ADVANCED_FACE ( 'NONE', ( #96 ), #194, .F. ) ;
#32 = CIRCLE ( 'NONE', #340, 1.000000000000000000 ) ;
#33 = CARTESIAN_POINT ( 'NONE',  ( 0.000000000000000000, -0.7500000000000001110, 0.000000000000000000 ) ) ;
#34 = EDGE_CURVE ( 'NONE', #363, #294, #200, .T. ) ;
#35 = CYLINDRICAL_SURFACE ( 'NONE', #54, 1.032499999999999973 ) ;
#36 = ORIENTED_EDGE ( 'NONE', *, *, #34, .T. ) ;
#37 = DIRECTION ( 'NONE',  ( -0.000000000000000000, 1.000000000000000000, -0.000000000000000000 ) ) ;
#38 = ORIENTED_EDGE ( 'NONE', *, *, #86, .F. ) ;
#39 =( LENGTH_UNIT ( ) NAMED_UNIT ( * ) SI_UNIT ( $, .METRE. ) );
#40 = EDGE_CURVE ( 'NONE', #127, #313, #89, .T. ) ;
#41 = ORIENTED_EDGE ( 'NONE', *, *, #282, .F. ) ;
#42 =( GEOMETRIC_REPRESENTATION_CONTEXT ( 3 ) GLOBAL_UNCERTAINTY_ASSIGNED_CONTEXT ( ( #196 ) ) GLOBAL_UNIT_ASSIGNED_CONTEXT ( ( #380, #383, #323 ) ) REPRESENTATION_CONTEXT ( 'NONE', 'WORKASPACE' ) );
#43 = PRESENTATION_LAYER_ASSIGNMENT (  '', '', ( #241 ) ) ;
#44 = DIMENSIONAL_EXPONENTS ( 1.000000000000000000, 0.000000000000000000, 0.000000000000000000, 0.000000000000000000, 0.000000000000000000, 0.000000000000000000, 0.000000000000000000 ) ;
#45 = CARTESIAN_POINT ( 'NONE',  ( 0.000000000000000000, -0.7500000000000001110, 1.000000000000000000 ) ) ;
#46 = AXIS2_PLACEMENT_3D ( 'NONE', #223, #219, #57 ) ;
#47 = ORIENTED_EDGE ( 'NONE', *, *, #290, .F. ) ;
#48 = EDGE_CURVE ( 'NONE', #354, #347, #189, .T. ) ;
#49 = DIRECTION ( 'NONE',  ( 0.000000000000000000, 0.000000000000000000, 1.000000000000000000 ) ) ;
#50 = SURFACE_STYLE_FILL_AREA ( #149 ) ;
#51 = DIRECTION ( 'NONE',  ( -0.000000000000000000, 1.000000000000000000, -0.000000000000000000 ) ) ;
#52 = FACE_OUTER_BOUND ( 'NONE', #207, .T. ) ;
#53 = LINE ( 'NONE', #184, #235 ) ;
#54 = AXIS2_PLACEMENT_3D ( 'NONE', #398, #314, #401 ) ;
#55 = ORIENTED_EDGE ( 'NONE', *, *, #370, .T. ) ;
#56 = ORIENTED_EDGE ( 'NONE', *, *, #74, .F. ) ;
#57 = DIRECTION ( 'NONE',  ( 0.000000000000000000, 0.000000000000000000, 1.000000000000000000 ) ) ;
#58 = DIRECTION ( 'NONE',  ( 0.000000000000000000, 0.000000000000000000, 1.000000000000000000 ) ) ;
#59 = CIRCLE ( 'NONE', #390, 1.000000000000000000 ) ;
#60 = VERTEX_POINT ( 'NONE', #297 ) ;
#61 = DIRECTION ( 'NONE',  ( 0.000000000000000000, 0.000000000000000000, 1.000000000000000000 ) ) ;
#62 = CIRCLE ( 'NONE', #160, 1.474999999999999867 ) ;
#63 = DIRECTION ( 'NONE',  ( 0.000000000000000000, 0.000000000000000000, 1.000000000000000000 ) ) ;
#64 = FACE_OUTER_BOUND ( 'NONE', #346, .T. ) ;
#65 = ADVANCED_FACE ( 'NONE', ( #353 ), #209, .T. ) ;
#66 = CYLINDRICAL_SURFACE ( 'NONE', #95, 1.474999999999999867 ) ;
#67 = DIRECTION ( 'NONE',  ( 0.000000000000000000, -0.000000000000000000, -1.000000000000000000 ) ) ;
#68 = ORIENTED_EDGE ( 'NONE', *, *, #11, .T. ) ;
#69 = DIRECTION ( 'NONE',  ( -0.000000000000000000, 1.000000000000000000, -0.000000000000000000 ) ) ;
#70 = ORIENTED_EDGE ( 'NONE', *, *, #120, .F. ) ;
#71 = AXIS2_PLACEMENT_3D ( 'NONE', #176, #326, #15 ) ;
#72 = DIRECTION ( 'NONE',  ( -0.000000000000000000, 1.000000000000000000, -0.000000000000000000 ) ) ;
#73 = ORIENTED_EDGE ( 'NONE', *, *, #355, .F. ) ;
#74 = EDGE_CURVE ( 'NONE', #265, #90, #155, .T. ) ;
#75 = CARTESIAN_POINT ( 'NONE',  ( 0.000000000000000000, -0.2472758664047799981, 0.000000000000000000 ) ) ;
#76 =( NAMED_UNIT ( * ) SI_UNIT ( $, .STERADIAN. ) SOLID_ANGLE_UNIT ( ) );
#77 = DIRECTION ( 'NONE',  ( 1.182917971378671814E-16, 0.2588190451025145222, -0.9659258262890699775 ) ) ;
#78 = CARTESIAN_POINT ( 'NONE',  ( 0.000000000000000000, 0.000000000000000000, 0.000000000000000000 ) ) ;
#79 =( GEOMETRIC_REPRESENTATION_CONTEXT ( 3 ) GLOBAL_UNCERTAINTY_ASSIGNED_CONTEXT ( ( #225 ) ) GLOBAL_UNIT_ASSIGNED_CONTEXT ( ( #147, #389, #76 ) ) REPRESENTATION_CONTEXT ( 'NONE', 'WORKASPACE' ) );
#80 = PRODUCT_RELATED_PRODUCT_CATEGORY ( 'part', '', ( #394 ) ) ;
#81 = EDGE_LOOP ( 'NONE', ( #198, #368 ) ) ;
#82 = ORIENTED_EDGE ( 'NONE', *, *, #175, .F. ) ;
#83 = LINE ( 'NONE', #336, #104 ) ;
#84 = DIRECTION ( 'NONE',  ( 0.000000000000000000, 0.000000000000000000, 1.000000000000000000 ) ) ;
#85 = CIRCLE ( 'NONE', #202, 1.032499999999999973 ) ;
#86 = EDGE_CURVE ( 'NONE', #158, #122, #7, .T. ) ;
#87 = AXIS2_PLACEMENT_3D ( 'NONE', #251, #214, #192 ) ;
#88 = DIRECTION ( 'NONE',  ( 0.000000000000000000, 0.000000000000000000, 1.000000000000000000 ) ) ;
#89 = CIRCLE ( 'NONE', #46, 1.032499999999999973 ) ;
#90 = VERTEX_POINT ( 'NONE', #30 ) ;
#91 = PRODUCT_DEFINITION_CONTEXT ( 'detailed design', #26, 'design' ) ;
#92 = DIRECTION ( 'NONE',  ( -0.000000000000000000, 1.000000000000000000, -0.000000000000000000 ) ) ;
#93 = ORIENTED_EDGE ( 'NONE', *, *, #282, .T. ) ;
#94 = CARTESIAN_POINT ( 'NONE',  ( 1.264447820119642160E-16, 0.000000000000000000, -1.032499999999999973 ) ) ;
#95 = AXIS2_PLACEMENT_3D ( 'NONE', #233, #3, #400 ) ;
#96 = FACE_OUTER_BOUND ( 'NONE', #173, .T. ) ;
#97 = CARTESIAN_POINT ( 'NONE',  ( 1.806354028742346048E-16, 0.000000000000000000, -1.474999999999999867 ) ) ;
#98 = ADVANCED_FACE ( 'NONE', ( #337, #64 ), #280, .F. ) ;
#99 = DIRECTION ( 'NONE',  ( -0.000000000000000000, 1.000000000000000000, -0.000000000000000000 ) ) ;
#100 = ORIENTED_EDGE ( 'NONE', *, *, #129, .T. ) ;
#101 = ORIENTED_EDGE ( 'NONE', *, *, #175, .T. ) ;
#102 = ADVANCED_FACE ( 'NONE', ( #259 ), #35, .F. ) ;
#103 = PRESENTATION_STYLE_ASSIGNMENT (( #136 ) ) ;
#104 = VECTOR ( 'NONE', #300, 39.37007874015748143 ) ;
#105 = ORIENTED_EDGE ( 'NONE', *, *, #376, .T. ) ;
#106 = VERTEX_POINT ( 'NONE', #373 ) ;
#107 = DIMENSIONAL_EXPONENTS ( 1.000000000000000000, 0.000000000000000000, 0.000000000000000000, 0.000000000000000000, 0.000000000000000000, 0.000000000000000000, 0.000000000000000000 ) ;
#108 = LENGTH_MEASURE_WITH_UNIT ( LENGTH_MEASURE( 0.02539999999999999897 ), #39 );
#109 = ORIENTED_EDGE ( 'NONE', *, *, #40, .T. ) ;
#110 = DIRECTION ( 'NONE',  ( 0.000000000000000000, 0.2588190451025145222, 0.9659258262890699775 ) ) ;
#111 = DIRECTION ( 'NONE',  ( -0.000000000000000000, 1.000000000000000000, -0.000000000000000000 ) ) ;
#112 = FILL_AREA_STYLE_COLOUR ( '', #268 ) ;
#113 = VECTOR ( 'NONE', #77, 39.37007874015748143 ) ;
#114 = DIRECTION ( 'NONE',  ( -0.000000000000000000, 1.000000000000000000, 0.000000000000000000 ) ) ;
#115 = DIRECTION ( 'NONE',  ( 0.000000000000000000, 0.000000000000000000, 1.000000000000000000 ) ) ;
#116 = DIRECTION ( 'NONE',  ( 0.000000000000000000, 0.000000000000000000, 1.000000000000000000 ) ) ;
#117 = AXIS2_PLACEMENT_3D ( 'NONE', #388, #276, #49 ) ;
#118 = CARTESIAN_POINT ( 'NONE',  ( 0.000000000000000000, -0.2472758664047799981, 0.000000000000000000 ) ) ;
#119 = CARTESIAN_POINT ( 'NONE',  ( 0.000000000000000000, 0.000000000000000000, 1.032499999999999973 ) ) ;
#120 = EDGE_CURVE ( 'NONE', #358, #28, #126, .T. ) ;
#121 = CARTESIAN_POINT ( 'NONE',  ( 1.032499999999999973, 0.000000000000000000, 0.000000000000000000 ) ) ;
#122 = VERTEX_POINT ( 'NONE', #97 ) ;
#123 = DIRECTION ( 'NONE',  ( 0.000000000000000000, 0.000000000000000000, 1.000000000000000000 ) ) ;
#124 = EDGE_CURVE ( 'NONE', #90, #291, #246, .T. ) ;
#125 = AXIS2_PLACEMENT_3D ( 'NONE', #261, #378, #123 ) ;
#126 = LINE ( 'NONE', #128, #151 ) ;
#127 = VERTEX_POINT ( 'NONE', #94 ) ;
#128 = CARTESIAN_POINT ( 'NONE',  ( 1.145044757202775302E-16, 0.000000000000000000, -0.9350000000000001643 ) ) ;
#129 = EDGE_CURVE ( 'NONE', #313, #127, #85, .T. ) ;
#130 = ORIENTED_EDGE ( 'NONE', *, *, #201, .T. ) ;
#131 = FILL_AREA_STYLE ('',( #112 ) ) ;
#132 = AXIS2_PLACEMENT_3D ( 'NONE', #257, #227, #61 ) ;
#133 = ORIENTED_EDGE ( 'NONE', *, *, #161, .F. ) ;
#134 = DIRECTION ( 'NONE',  ( 0.000000000000000000, 0.000000000000000000, 1.000000000000000000 ) ) ;
#135 = ORIENTED_EDGE ( 'NONE', *, *, #349, .T. ) ;
#136 = SURFACE_STYLE_USAGE ( .BOTH. , #317 ) ;
#137 = DIRECTION ( 'NONE',  ( 0.000000000000000000, 0.000000000000000000, 1.000000000000000000 ) ) ;
#138 = DIMENSIONAL_EXPONENTS ( 1.000000000000000000, 0.000000000000000000, 0.000000000000000000, 0.000000000000000000, 0.000000000000000000, 0.000000000000000000, 0.000000000000000000 ) ;
#139 = ORIENTED_EDGE ( 'NONE', *, *, #290, .T. ) ;
#140 = FACE_OUTER_BOUND ( 'NONE', #232, .T. ) ;
#141 = EDGE_CURVE ( 'NONE', #291, #90, #32, .T. ) ;
#142 = ORIENTED_EDGE ( 'NONE', *, *, #48, .T. ) ;
#143 = AXIS2_PLACEMENT_3D ( 'NONE', #319, #72, #137 ) ;
#144 = CARTESIAN_POINT ( 'NONE',  ( 0.000000000000000000, -0.1000000000000000194, 0.000000000000000000 ) ) ;
#145 =( NAMED_UNIT ( * ) SI_UNIT ( $, .STERADIAN. ) SOLID_ANGLE_UNIT ( ) );
#146 = FACE_OUTER_BOUND ( 'NONE', #324, .T. ) ;
#147 =( CONVERSION_BASED_UNIT ( 'INCH', #19 ) LENGTH_UNIT ( ) NAMED_UNIT ( #107 ) );
#148 = CARTESIAN_POINT ( 'NONE',  ( 1.806354028742346048E-16, 0.000000000000000000, -1.474999999999999867 ) ) ;
#149 = FILL_AREA_STYLE ('',( #152 ) ) ;
#150 = CARTESIAN_POINT ( 'NONE',  ( 0.000000000000000000, -0.7500000000000001110, 0.9350000000000001643 ) ) ;
#151 = VECTOR ( 'NONE', #197, 39.37007874015748143 ) ;
#152 = FILL_AREA_STYLE_COLOUR ( '', #1 ) ;
#153 = DIRECTION ( 'NONE',  ( 0.000000000000000000, -0.000000000000000000, -1.000000000000000000 ) ) ;
#154 = SHAPE_DEFINITION_REPRESENTATION ( #306, #17 ) ;
#155 = LINE ( 'NONE', #187, #302 ) ;
#156 = ORIENTED_EDGE ( 'NONE', *, *, #141, .F. ) ;
#157 = DIRECTION ( 'NONE',  ( -0.000000000000000000, 1.000000000000000000, -0.000000000000000000 ) ) ;
#158 = VERTEX_POINT ( 'NONE', #284 ) ;
#159 =( CONVERSION_BASED_UNIT ( 'INCH', #29 ) LENGTH_UNIT ( ) NAMED_UNIT ( #138 ) );
#160 = AXIS2_PLACEMENT_3D ( 'NONE', #188, #51, #275 ) ;
#161 = EDGE_CURVE ( 'NONE', #106, #158, #308, .T. ) ;
#162 = DIRECTION ( 'NONE',  ( 0.000000000000000000, 0.000000000000000000, 1.000000000000000000 ) ) ;
#163 = CIRCLE ( 'NONE', #125, 1.474999999999999867 ) ;
#164 = AXIS2_PLACEMENT_3D ( 'NONE', #272, #329, #116 ) ;
#165 = DIRECTION ( 'NONE',  ( -0.000000000000000000, 1.000000000000000000, -0.000000000000000000 ) ) ;
#166 = EDGE_CURVE ( 'NONE', #60, #265, #372, .T. ) ;
#167 = ORIENTED_EDGE ( 'NONE', *, *, #215, .T. ) ;
#168 = CIRCLE ( 'NONE', #230, 0.9350000000000001643 ) ;
#169 = DIRECTION ( 'NONE',  ( -0.000000000000000000, 1.000000000000000000, -0.000000000000000000 ) ) ;
#170 = ORIENTED_EDGE ( 'NONE', *, *, #24, .F. ) ;
#171 = STYLED_ITEM ( 'NONE', ( #103 ), #231 ) ;
#172 = ORIENTED_EDGE ( 'NONE', *, *, #16, .F. ) ;
#173 = EDGE_LOOP ( 'NONE', ( #2, #135, #109, #170 ) ) ;
#174 = AXIS2_PLACEMENT_3D ( 'NONE', #374, #228, #63 ) ;
#175 = EDGE_CURVE ( 'NONE', #358, #363, #23, .T. ) ;
#176 = CARTESIAN_POINT ( 'NONE',  ( 0.000000000000000000, -0.1000000000000000194, 0.000000000000000000 ) ) ;
#177 = CARTESIAN_POINT ( 'NONE',  ( 0.000000000000000000, -0.1000000000000000194, 0.000000000000000000 ) ) ;
#178 = APPLICATION_CONTEXT ( 'automotive_design' ) ;
#179 = APPLICATION_PROTOCOL_DEFINITION ( 'draft international standard', 'automotive_design', 1998, #178 ) ;
#180 = DIRECTION ( 'NONE',  ( -0.000000000000000000, 1.000000000000000000, -0.000000000000000000 ) ) ;
#181 = PRESENTATION_STYLE_ASSIGNMENT (( #352 ) ) ;
#182 = ADVANCED_FACE ( 'NONE', ( #287 ), #66, .T. ) ;
#183 = AXIS2_PLACEMENT_3D ( 'NONE', #121, #253, #153 ) ;
#184 = CARTESIAN_POINT ( 'NONE',  ( 1.224646799147353207E-16, 0.000000000000000000, -1.000000000000000000 ) ) ;
#185 = DIRECTION ( 'NONE',  ( 0.000000000000000000, 0.000000000000000000, 1.000000000000000000 ) ) ;
#186 = PRODUCT_CONTEXT ( 'NONE', #178, 'mechanical' ) ;
#187 = CARTESIAN_POINT ( 'NONE',  ( 0.000000000000000000, 0.000000000000000000, 1.000000000000000000 ) ) ;
#188 = CARTESIAN_POINT ( 'NONE',  ( 0.000000000000000000, -0.1200000000000000233, 0.000000000000000000 ) ) ;
#189 = CIRCLE ( 'NONE', #143, 1.032499999999999973 ) ;
#190 = DIRECTION ( 'NONE',  ( -0.000000000000000000, 1.000000000000000000, -0.000000000000000000 ) ) ;
#191 = ORIENTED_EDGE ( 'NONE', *, *, #34, .F. ) ;
#192 = DIRECTION ( 'NONE',  ( 0.000000000000000000, 0.000000000000000000, 1.000000000000000000 ) ) ;
#193 = ORIENTED_EDGE ( 'NONE', *, *, #376, .F. ) ;
#194 = CYLINDRICAL_SURFACE ( 'NONE', #174, 1.032499999999999973 ) ;
#195 = CARTESIAN_POINT ( 'NONE',  ( 0.000000000000000000, 0.000000000000000000, 0.000000000000000000 ) ) ;
#196 = UNCERTAINTY_MEASURE_WITH_UNIT (LENGTH_MEASURE( 1.000000000000000082E-05 ), #380, 'distance_accuracy_value', 'NONE');
#197 = DIRECTION ( 'NONE',  ( -0.000000000000000000, 1.000000000000000000, -0.000000000000000000 ) ) ;
#198 = ORIENTED_EDGE ( 'NONE', *, *, #129, .F. ) ;
#199 = CARTESIAN_POINT ( 'NONE',  ( 0.000000000000000000, -0.7500000000000001110, 0.000000000000000000 ) ) ;
#200 = LINE ( 'NONE', #366, #221 ) ;
#201 = EDGE_CURVE ( 'NONE', #122, #158, #163, .T. ) ;
#202 = AXIS2_PLACEMENT_3D ( 'NONE', #341, #37, #162 ) ;
#203 = DIRECTION ( 'NONE',  ( 0.000000000000000000, 0.000000000000000000, 1.000000000000000000 ) ) ;
#204 = ORIENTED_EDGE ( 'NONE', *, *, #349, .F. ) ;
#205 = ORIENTED_EDGE ( 'NONE', *, *, #120, .T. ) ;
#206 = MECHANICAL_DESIGN_GEOMETRIC_PRESENTATION_REPRESENTATION (  '', ( #241 ), #79 ) ;
#207 = EDGE_LOOP ( 'NONE', ( #55, #105, #38, #133 ) ) ;
#208 = DIRECTION ( 'NONE',  ( 0.000000000000000000, 0.000000000000000000, 1.000000000000000000 ) ) ;
#209 = CYLINDRICAL_SURFACE ( 'NONE', #293, 1.000000000000000000 ) ;
#210 = CARTESIAN_POINT ( 'NONE',  ( 1.264447820119642160E-16, -0.1000000000000000194, -1.032499999999999973 ) ) ;
#211 =( LENGTH_UNIT ( ) NAMED_UNIT ( * ) SI_UNIT ( $, .METRE. ) );
#212 = DIRECTION ( 'NONE',  ( 0.000000000000000000, 0.000000000000000000, 1.000000000000000000 ) ) ;
#213 = EDGE_LOOP ( 'NONE', ( #239, #262, #397, #252 ) ) ;
#214 = DIRECTION ( 'NONE',  ( -0.000000000000000000, 1.000000000000000000, -0.000000000000000000 ) ) ;
#215 = EDGE_CURVE ( 'NONE', #363, #358, #318, .T. ) ;
#216 = DIRECTION ( 'NONE',  ( -0.000000000000000000, 1.000000000000000000, -0.000000000000000000 ) ) ;
#217 = MECHANICAL_DESIGN_GEOMETRIC_PRESENTATION_REPRESENTATION (  '', ( #171 ), #42 ) ;
#218 = CONICAL_SURFACE ( 'NONE', #271, 1.000000000000000000, 1.308996938995753645 ) ;
#219 = DIRECTION ( 'NONE',  ( -0.000000000000000000, 1.000000000000000000, -0.000000000000000000 ) ) ;
#220 = FACE_OUTER_BOUND ( 'NONE', #237, .T. ) ;
#221 = VECTOR ( 'NONE', #92, 39.37007874015748143 ) ;
#222 = EDGE_LOOP ( 'NONE', ( #256, #334, #6, #56 ) ) ;
#223 = CARTESIAN_POINT ( 'NONE',  ( 0.000000000000000000, 0.000000000000000000, 0.000000000000000000 ) ) ;
#224 = EDGE_CURVE ( 'NONE', #265, #60, #59, .T. ) ;
#225 = UNCERTAINTY_MEASURE_WITH_UNIT (LENGTH_MEASURE( 1.000000000000000082E-05 ), #147, 'distance_accuracy_value', 'NONE');
#226 = CONICAL_SURFACE ( 'NONE', #274, 1.000000000000000000, 1.308996938995753645 ) ;
#227 = DIRECTION ( 'NONE',  ( -0.000000000000000000, 1.000000000000000000, -0.000000000000000000 ) ) ;
#228 = DIRECTION ( 'NONE',  ( -0.000000000000000000, 1.000000000000000000, -0.000000000000000000 ) ) ;
#229 = CARTESIAN_POINT ( 'NONE',  ( 0.000000000000000000, -0.2472758664047799981, 0.000000000000000000 ) ) ;
#230 = AXIS2_PLACEMENT_3D ( 'NONE', #177, #111, #208 ) ;
#231 = MANIFOLD_SOLID_BREP ( 'Revolve1', #12 ) ;
#232 = EDGE_LOOP ( 'NONE', ( #285, #68, #277, #234 ) ) ;
#233 = CARTESIAN_POINT ( 'NONE',  ( 0.000000000000000000, 0.000000000000000000, 0.000000000000000000 ) ) ;
#234 = ORIENTED_EDGE ( 'NONE', *, *, #244, .F. ) ;
#235 = VECTOR ( 'NONE', #299, 39.37007874015748143 ) ;
#236 = DIRECTION ( 'NONE',  ( -0.000000000000000000, 1.000000000000000000, -0.000000000000000000 ) ) ;
#237 = EDGE_LOOP ( 'NONE', ( #73, #9, #338, #156 ) ) ;
#238 = CARTESIAN_POINT ( 'NONE',  ( 0.000000000000000000, -0.2472758664047799981, 1.000000000000000000 ) ) ;
#239 = ORIENTED_EDGE ( 'NONE', *, *, #11, .F. ) ;
#240 = DIRECTION ( 'NONE',  ( 0.000000000000000000, 0.000000000000000000, 1.000000000000000000 ) ) ;
#241 = STYLED_ITEM ( 'NONE', ( #181 ), #17 ) ;
#242 = SURFACE_SIDE_STYLE ('',( #50 ) ) ;
#243 = LINE ( 'NONE', #327, #387 ) ;
#244 = EDGE_CURVE ( 'NONE', #90, #106, #328, .T. ) ;
#245 = DIRECTION ( 'NONE',  ( 0.000000000000000000, 0.000000000000000000, 1.000000000000000000 ) ) ;
#246 = CIRCLE ( 'NONE', #365, 1.000000000000000000 ) ;
#247 = DIRECTION ( 'NONE',  ( -0.000000000000000000, 1.000000000000000000, -0.000000000000000000 ) ) ;
#248 = CARTESIAN_POINT ( 'NONE',  ( 0.000000000000000000, 0.000000000000000000, 0.000000000000000000 ) ) ;
#249 = CARTESIAN_POINT ( 'NONE',  ( 0.000000000000000000, -0.1000000000000000194, 1.032499999999999973 ) ) ;
#250 = ADVANCED_FACE ( 'NONE', ( #140 ), #226, .T. ) ;
#251 = CARTESIAN_POINT ( 'NONE',  ( 0.000000000000000000, 0.000000000000000000, 0.000000000000000000 ) ) ;
#252 = ORIENTED_EDGE ( 'NONE', *, *, #296, .F. ) ;
#253 = DIRECTION ( 'NONE',  ( 0.000000000000000000, -1.000000000000000000, 0.000000000000000000 ) ) ;
#254 = AXIS2_PLACEMENT_3D ( 'NONE', #33, #99, #310 ) ;
#255 = CIRCLE ( 'NONE', #345, 1.474999999999999867 ) ;
#256 = ORIENTED_EDGE ( 'NONE', *, *, #224, .T. ) ;
#257 = CARTESIAN_POINT ( 'NONE',  ( 0.000000000000000000, -0.7500000000000001110, 0.000000000000000000 ) ) ;
#258 = CIRCLE ( 'NONE', #71, 0.9350000000000001643 ) ;
#259 = FACE_OUTER_BOUND ( 'NONE', #320, .T. ) ;
#260 = ORIENTED_EDGE ( 'NONE', *, *, #224, .F. ) ;
#261 = CARTESIAN_POINT ( 'NONE',  ( 0.000000000000000000, 0.000000000000000000, 0.000000000000000000 ) ) ;
#262 = ORIENTED_EDGE ( 'NONE', *, *, #141, .T. ) ;
#263 = CARTESIAN_POINT ( 'NONE',  ( 0.000000000000000000, -0.1200000000000000233, 0.000000000000000000 ) ) ;
#264 = VECTOR ( 'NONE', #110, 39.37007874015748143 ) ;
#265 = VERTEX_POINT ( 'NONE', #45 ) ;
#266 = EDGE_LOOP ( 'NONE', ( #167, #101 ) ) ;
#267 = CARTESIAN_POINT ( 'NONE',  ( 0.000000000000000000, 0.000000000000000000, 0.000000000000000000 ) ) ;
#268 = COLOUR_RGB ( '',0.6470588235294117974, 0.6196078431372549211, 0.5882352941176470784 ) ;
#269 = LINE ( 'NONE', #386, #113 ) ;
#270 = CARTESIAN_POINT ( 'NONE',  ( 1.806354028742346048E-16, -0.1200000000000000233, -1.474999999999999867 ) ) ;
#271 = AXIS2_PLACEMENT_3D ( 'NONE', #118, #247, #303 ) ;
#272 = CARTESIAN_POINT ( 'NONE',  ( 0.000000000000000000, 0.000000000000000000, 0.000000000000000000 ) ) ;
#273 = FACE_OUTER_BOUND ( 'NONE', #213, .T. ) ;
#274 = AXIS2_PLACEMENT_3D ( 'NONE', #75, #236, #240 ) ;
#275 = DIRECTION ( 'NONE',  ( 0.000000000000000000, 0.000000000000000000, 1.000000000000000000 ) ) ;
#276 = DIRECTION ( 'NONE',  ( -0.000000000000000000, 1.000000000000000000, -0.000000000000000000 ) ) ;
#277 = ORIENTED_EDGE ( 'NONE', *, *, #370, .F. ) ;
#278 = CARTESIAN_POINT ( 'NONE',  ( 0.000000000000000000, -0.2472758664047799981, 0.000000000000000000 ) ) ;
#279 = AXIS2_PLACEMENT_3D ( 'NONE', #78, #180, #185 ) ;
#280 = PLANE ( 'NONE',  #335 ) ;
#281 = DIRECTION ( 'NONE',  ( 0.000000000000000000, -1.000000000000000000, 0.000000000000000000 ) ) ;
#282 = EDGE_CURVE ( 'NONE', #28, #294, #258, .T. ) ;
#283 = AXIS2_PLACEMENT_3D ( 'NONE', #339, #371, #58 ) ;
#284 = CARTESIAN_POINT ( 'NONE',  ( 0.000000000000000000, 0.000000000000000000, 1.474999999999999867 ) ) ;
#285 = ORIENTED_EDGE ( 'NONE', *, *, #124, .T. ) ;
#286 = AXIS2_PLACEMENT_3D ( 'NONE', #144, #169, #289 ) ;
#287 = FACE_OUTER_BOUND ( 'NONE', #332, .T. ) ;
#288 = VERTEX_POINT ( 'NONE', #270 ) ;
#289 = DIRECTION ( 'NONE',  ( 0.000000000000000000, 0.000000000000000000, 1.000000000000000000 ) ) ;
#290 = EDGE_CURVE ( 'NONE', #347, #354, #348, .T. ) ;
#291 = VERTEX_POINT ( 'NONE', #292 ) ;
#292 = CARTESIAN_POINT ( 'NONE',  ( 1.515500413944849381E-16, -0.2472758664047799981, -1.000000000000000000 ) ) ;
#293 = AXIS2_PLACEMENT_3D ( 'NONE', #267, #190, #84 ) ;
#294 = VERTEX_POINT ( 'NONE', #5 ) ;
#295 = ORIENTED_EDGE ( 'NONE', *, *, #296, .T. ) ;
#296 = EDGE_CURVE ( 'NONE', #288, #106, #255, .T. ) ;
#297 = CARTESIAN_POINT ( 'NONE',  ( 1.224646799147353207E-16, -0.7500000000000001110, -1.000000000000000000 ) ) ;
#298 = DIRECTION ( 'NONE',  ( -0.000000000000000000, 1.000000000000000000, -0.000000000000000000 ) ) ;
#299 = DIRECTION ( 'NONE',  ( -0.000000000000000000, 1.000000000000000000, -0.000000000000000000 ) ) ;
#300 = DIRECTION ( 'NONE',  ( -0.000000000000000000, 1.000000000000000000, -0.000000000000000000 ) ) ;
#301 = CYLINDRICAL_SURFACE ( 'NONE', #164, 0.9350000000000001643 ) ;
#302 = VECTOR ( 'NONE', #157, 39.37007874015748143 ) ;
#303 = DIRECTION ( 'NONE',  ( 0.000000000000000000, 0.000000000000000000, 1.000000000000000000 ) ) ;
#304 = ADVANCED_FACE ( 'NONE', ( #359, #364 ), #396, .F. ) ;
#305 = ORIENTED_EDGE ( 'NONE', *, *, #166, .F. ) ;
#306 = PRODUCT_DEFINITION_SHAPE ( 'NONE', 'NONE',  #399 ) ;
#307 =( NAMED_UNIT ( * ) PLANE_ANGLE_UNIT ( ) SI_UNIT ( $, .RADIAN. ) );
#308 = LINE ( 'NONE', #375, #385 ) ;
#309 = UNCERTAINTY_MEASURE_WITH_UNIT (LENGTH_MEASURE( 1.000000000000000082E-05 ), #159, 'distance_accuracy_value', 'NONE');
#310 = DIRECTION ( 'NONE',  ( 0.000000000000000000, 0.000000000000000000, 1.000000000000000000 ) ) ;
#311 = ADVANCED_FACE ( 'NONE', ( #333, #21 ), #25, .F. ) ;
#312 = DIRECTION ( 'NONE',  ( -0.000000000000000000, 1.000000000000000000, -0.000000000000000000 ) ) ;
#313 = VERTEX_POINT ( 'NONE', #119 ) ;
#314 = DIRECTION ( 'NONE',  ( -0.000000000000000000, 1.000000000000000000, -0.000000000000000000 ) ) ;
#315 = ADVANCED_FACE ( 'NONE', ( #220 ), #391, .T. ) ;
#316 = EDGE_LOOP ( 'NONE', ( #381, #130 ) ) ;
#317 = SURFACE_SIDE_STYLE ('',( #384 ) ) ;
#318 = CIRCLE ( 'NONE', #132, 0.9350000000000001643 ) ;
#319 = CARTESIAN_POINT ( 'NONE',  ( 0.000000000000000000, -0.1000000000000000194, 0.000000000000000000 ) ) ;
#320 = EDGE_LOOP ( 'NONE', ( #204, #47, #13, #100 ) ) ;
#321 = PRODUCT_DEFINITION_FORMATION_WITH_SPECIFIED_SOURCE ( 'ANY', '', #394, .NOT_KNOWN. ) ;
#322 = AXIS2_PLACEMENT_3D ( 'NONE', #367, #114, #88 ) ;
#323 =( NAMED_UNIT ( * ) SI_UNIT ( $, .STERADIAN. ) SOLID_ANGLE_UNIT ( ) );
#324 = EDGE_LOOP ( 'NONE', ( #70, #344, #36, #377 ) ) ;
#325 = ADVANCED_FACE ( 'NONE', ( #356 ), #392, .F. ) ;
#326 = DIRECTION ( 'NONE',  ( -0.000000000000000000, 1.000000000000000000, -0.000000000000000000 ) ) ;
#327 = CARTESIAN_POINT ( 'NONE',  ( 0.000000000000000000, 0.000000000000000000, 1.032499999999999973 ) ) ;
#328 = LINE ( 'NONE', #238, #264 ) ;
#329 = DIRECTION ( 'NONE',  ( -0.000000000000000000, 1.000000000000000000, -0.000000000000000000 ) ) ;
#330 = CYLINDRICAL_SURFACE ( 'NONE', #279, 1.474999999999999867 ) ;
#331 = DIRECTION ( 'NONE',  ( 1.000000000000000000, 0.000000000000000000, 0.000000000000000000 ) ) ;
#332 = EDGE_LOOP ( 'NONE', ( #193, #295, #27, #395 ) ) ;
#333 = FACE_OUTER_BOUND ( 'NONE', #379, .T. ) ;
#334 = ORIENTED_EDGE ( 'NONE', *, *, #355, .T. ) ;
#335 = AXIS2_PLACEMENT_3D ( 'NONE', #343, #281, #67 ) ;
#336 = CARTESIAN_POINT ( 'NONE',  ( 1.264447820119642160E-16, 0.000000000000000000, -1.032499999999999973 ) ) ;
#337 = FACE_BOUND ( 'NONE', #350, .T. ) ;
#338 = ORIENTED_EDGE ( 'NONE', *, *, #74, .T. ) ;
#339 = CARTESIAN_POINT ( 'NONE',  ( 0.000000000000000000, -0.7500000000000001110, 0.000000000000000000 ) ) ;
#340 = AXIS2_PLACEMENT_3D ( 'NONE', #278, #312, #203 ) ;
#341 = CARTESIAN_POINT ( 'NONE',  ( 0.000000000000000000, 0.000000000000000000, 0.000000000000000000 ) ) ;
#342 = ADVANCED_FACE ( 'NONE', ( #52 ), #330, .T. ) ;
#343 = CARTESIAN_POINT ( 'NONE',  ( 0.9350000000000001643, -0.1000000000000000194, 0.000000000000000000 ) ) ;
#344 = ORIENTED_EDGE ( 'NONE', *, *, #215, .F. ) ;
#345 = AXIS2_PLACEMENT_3D ( 'NONE', #263, #69, #134 ) ;
#346 = EDGE_LOOP ( 'NONE', ( #139, #142 ) ) ;
#347 = VERTEX_POINT ( 'NONE', #249 ) ;
#348 = CIRCLE ( 'NONE', #286, 1.032499999999999973 ) ;
#349 = EDGE_CURVE ( 'NONE', #354, #127, #83, .T. ) ;
#350 = EDGE_LOOP ( 'NONE', ( #172, #41 ) ) ;
#351 = DIRECTION ( 'NONE',  ( -0.000000000000000000, 1.000000000000000000, -0.000000000000000000 ) ) ;
#352 = SURFACE_STYLE_USAGE ( .BOTH. , #242 ) ;
#353 = FACE_OUTER_BOUND ( 'NONE', #222, .T. ) ;
#354 = VERTEX_POINT ( 'NONE', #210 ) ;
#355 = EDGE_CURVE ( 'NONE', #60, #291, #53, .T. ) ;
#356 = FACE_OUTER_BOUND ( 'NONE', #4, .T. ) ;
#357 = PRESENTATION_LAYER_ASSIGNMENT (  '', '', ( #171 ) ) ;
#358 = VERTEX_POINT ( 'NONE', #18 ) ;
#359 = FACE_BOUND ( 'NONE', #81, .T. ) ;
#360 =( LENGTH_UNIT ( ) NAMED_UNIT ( * ) SI_UNIT ( $, .METRE. ) );
#361 = DIRECTION ( 'NONE',  ( -0.000000000000000000, 1.000000000000000000, -0.000000000000000000 ) ) ;
#362 = ADVANCED_FACE ( 'NONE', ( #146 ), #301, .F. ) ;
#363 = VERTEX_POINT ( 'NONE', #150 ) ;
#364 = FACE_OUTER_BOUND ( 'NONE', #316, .T. ) ;
#365 = AXIS2_PLACEMENT_3D ( 'NONE', #229, #165, #369 ) ;
#366 = CARTESIAN_POINT ( 'NONE',  ( 0.000000000000000000, 0.000000000000000000, 0.9350000000000001643 ) ) ;
#367 = CARTESIAN_POINT ( 'NONE',  ( 1.000000000000000000, -0.7500000000000001110, 0.000000000000000000 ) ) ;
#368 = ORIENTED_EDGE ( 'NONE', *, *, #40, .F. ) ;
#369 = DIRECTION ( 'NONE',  ( 0.000000000000000000, 0.000000000000000000, 1.000000000000000000 ) ) ;
#370 = EDGE_CURVE ( 'NONE', #106, #288, #62, .T. ) ;
#371 = DIRECTION ( 'NONE',  ( -0.000000000000000000, 1.000000000000000000, -0.000000000000000000 ) ) ;
#372 = CIRCLE ( 'NONE', #283, 1.000000000000000000 ) ;
#373 = CARTESIAN_POINT ( 'NONE',  ( 0.000000000000000000, -0.1200000000000000233, 1.474999999999999867 ) ) ;
#374 = CARTESIAN_POINT ( 'NONE',  ( 0.000000000000000000, 0.000000000000000000, 0.000000000000000000 ) ) ;
#375 = CARTESIAN_POINT ( 'NONE',  ( 0.000000000000000000, 0.000000000000000000, 1.474999999999999867 ) ) ;
#376 = EDGE_CURVE ( 'NONE', #288, #122, #20, .T. ) ;
#377 = ORIENTED_EDGE ( 'NONE', *, *, #16, .T. ) ;
#378 = DIRECTION ( 'NONE',  ( -0.000000000000000000, 1.000000000000000000, -0.000000000000000000 ) ) ;
#379 = EDGE_LOOP ( 'NONE', ( #260, #305 ) ) ;
#380 =( CONVERSION_BASED_UNIT ( 'INCH', #108 ) LENGTH_UNIT ( ) NAMED_UNIT ( #44 ) );
#381 = ORIENTED_EDGE ( 'NONE', *, *, #86, .T. ) ;
#382 = VECTOR ( 'NONE', #216, 39.37007874015748143 ) ;
#383 =( NAMED_UNIT ( * ) PLANE_ANGLE_UNIT ( ) SI_UNIT ( $, .RADIAN. ) );
#384 = SURFACE_STYLE_FILL_AREA ( #131 ) ;
#385 = VECTOR ( 'NONE', #403, 39.37007874015748143 ) ;
#386 = CARTESIAN_POINT ( 'NONE',  ( 1.224646799147353207E-16, -0.2472758664047799981, -1.000000000000000000 ) ) ;
#387 = VECTOR ( 'NONE', #298, 39.37007874015748143 ) ;
#388 = CARTESIAN_POINT ( 'NONE',  ( 0.000000000000000000, 0.000000000000000000, 0.000000000000000000 ) ) ;
#389 =( NAMED_UNIT ( * ) PLANE_ANGLE_UNIT ( ) SI_UNIT ( $, .RADIAN. ) );
#390 = AXIS2_PLACEMENT_3D ( 'NONE', #199, #351, #245 ) ;
#391 = CYLINDRICAL_SURFACE ( 'NONE', #117, 1.000000000000000000 ) ;
#392 = CYLINDRICAL_SURFACE ( 'NONE', #87, 0.9350000000000001643 ) ;
#393 = ADVANCED_FACE ( 'NONE', ( #273 ), #218, .T. ) ;
#394 = PRODUCT ( '715104', '715104', '', ( #186 ) ) ;
#395 = ORIENTED_EDGE ( 'NONE', *, *, #201, .F. ) ;
#396 = PLANE ( 'NONE',  #183 ) ;
#397 = ORIENTED_EDGE ( 'NONE', *, *, #244, .T. ) ;
#398 = CARTESIAN_POINT ( 'NONE',  ( 0.000000000000000000, 0.000000000000000000, 0.000000000000000000 ) ) ;
#399 = PRODUCT_DEFINITION ( 'UNKNOWN', '', #321, #91 ) ;
#400 = DIRECTION ( 'NONE',  ( 0.000000000000000000, 0.000000000000000000, 1.000000000000000000 ) ) ;
#401 = DIRECTION ( 'NONE',  ( 0.000000000000000000, 0.000000000000000000, 1.000000000000000000 ) ) ;
#402 = AXIS2_PLACEMENT_3D ( 'NONE', #195, #361, #115 ) ;
#403 = DIRECTION ( 'NONE',  ( -0.000000000000000000, 1.000000000000000000, -0.000000000000000000 ) ) ;
ENDSEC;
END-ISO-10303-21;
