ISO-10303-21;
HEADER;
FILE_DESCRIPTION (( 'STEP AP214' ),
    '1' );
FILE_NAME ('715105.STEP',
    '2024-01-09T15:46:25',
    ( '' ),
    ( '' ),
    'SwSTEP 2.0',
    'SolidWorks 2022',
    '' );
FILE_SCHEMA (( 'AUTOMOTIVE_DESIGN' ));
ENDSEC;

DATA;
#1 = EDGE_LOOP ( 'NONE', ( #186, #95, #102, #256 ) ) ;
#2 = DIRECTION ( 'NONE',  ( -1.000000000000000000, 0.000000000000000000, -0.000000000000000000 ) ) ;
#3 = DIRECTION ( 'NONE',  ( -1.000000000000000000, -0.000000000000000000, -0.000000000000000000 ) ) ;
#4 = DIRECTION ( 'NONE',  ( -1.000000000000000000, -0.000000000000000000, -0.000000000000000000 ) ) ;
#5 = ORIENTED_EDGE ( 'NONE', *, *, #395, .F. ) ;
#6 = EDGE_LOOP ( 'NONE', ( #128, #129, #159, #113 ) ) ;
#7 = COLOUR_RGB ( '',0.6470588235294117974, 0.6196078431372549211, 0.5882352941176470784 ) ;
#8 = ADVANCED_FACE ( 'NONE', ( #327 ), #318, .T. ) ;
#9 = ORIENTED_EDGE ( 'NONE', *, *, #202, .T. ) ;
#10 = VERTEX_POINT ( 'NONE', #92 ) ;
#11 = DIRECTION ( 'NONE',  ( 0.000000000000000000, 0.000000000000000000, 1.000000000000000000 ) ) ;
#12 = ORIENTED_EDGE ( 'NONE', *, *, #146, .F. ) ;
#13 = ORIENTED_EDGE ( 'NONE', *, *, #67, .T. ) ;
#14 = CIRCLE ( 'NONE', #337, 0.5899999999999999689 ) ;
#15 = VECTOR ( 'NONE', #372, 39.37007874015748143 ) ;
#16 = PLANE ( 'NONE',  #199 ) ;
#17 = LINE ( 'NONE', #78, #143 ) ;
#18 =( NAMED_UNIT ( * ) PLANE_ANGLE_UNIT ( ) SI_UNIT ( $, .RADIAN. ) );
#19 = VECTOR ( 'NONE', #4, 39.37007874015748143 ) ;
#20 = AXIS2_PLACEMENT_3D ( 'NONE', #344, #350, #402 ) ;
#21 = PRODUCT_DEFINITION_FORMATION_WITH_SPECIFIED_SOURCE ( 'ANY', '', #310, .NOT_KNOWN. ) ;
#22 = CARTESIAN_POINT ( 'NONE',  ( 0.000000000000000000, 4.139306181118054535E-17, -0.3380000000000000782 ) ) ;
#23 = CARTESIAN_POINT ( 'NONE',  ( 0.000000000000000000, 0.000000000000000000, 0.000000000000000000 ) ) ;
#24 = ORIENTED_EDGE ( 'NONE', *, *, #271, .T. ) ;
#25 = LINE ( 'NONE', #114, #15 ) ;
#26 = CIRCLE ( 'NONE', #73, 0.5899999999999999689 ) ;
#27 = MECHANICAL_DESIGN_GEOMETRIC_PRESENTATION_REPRESENTATION (  '', ( #351 ), #127 ) ;
#28 = DIRECTION ( 'NONE',  ( -1.000000000000000000, -0.000000000000000000, -0.000000000000000000 ) ) ;
#29 = PRESENTATION_STYLE_ASSIGNMENT (( #313 ) ) ;
#30 = DIRECTION ( 'NONE',  ( 0.000000000000000000, 0.000000000000000000, -1.000000000000000000 ) ) ;
#31 = FILL_AREA_STYLE_COLOUR ( '', #7 ) ;
#32 = DIRECTION ( 'NONE',  ( -1.000000000000000000, -0.000000000000000000, -0.000000000000000000 ) ) ;
#33 = ORIENTED_EDGE ( 'NONE', *, *, #164, .T. ) ;
#34 = AXIS2_PLACEMENT_3D ( 'NONE', #248, #84, #59 ) ;
#35 = DIRECTION ( 'NONE',  ( -1.000000000000000000, -0.000000000000000000, -0.000000000000000000 ) ) ;
#36 = CONICAL_SURFACE ( 'NONE', #244, 0.2500000000000000000, 1.308996938995753645 ) ;
#37 = DIRECTION ( 'NONE',  ( -1.000000000000000000, -0.000000000000000000, -0.000000000000000000 ) ) ;
#38 = UNCERTAINTY_MEASURE_WITH_UNIT (LENGTH_MEASURE( 1.000000000000000082E-05 ), #264, 'distance_accuracy_value', 'NONE');
#39 = CYLINDRICAL_SURFACE ( 'NONE', #203, 0.5899999999999999689 ) ;
#40 = EDGE_CURVE ( 'NONE', #141, #10, #55, .T. ) ;
#41 = CARTESIAN_POINT ( 'NONE',  ( 0.2111027254265793740, 3.061616997868383018E-17, -0.2500000000000000000 ) ) ;
#42 = AXIS2_PLACEMENT_3D ( 'NONE', #292, #284, #255 ) ;
#43 = AXIS2_PLACEMENT_3D ( 'NONE', #53, #167, #228 ) ;
#44 = ORIENTED_EDGE ( 'NONE', *, *, #153, .T. ) ;
#45 = DIRECTION ( 'NONE',  ( -1.000000000000000000, -0.000000000000000000, -0.000000000000000000 ) ) ;
#46 = CARTESIAN_POINT ( 'NONE',  ( 0.000000000000000000, 2.296212748401287726E-17, -0.1875000000000000278 ) ) ;
#47 = ORIENTED_EDGE ( 'NONE', *, *, #206, .F. ) ;
#48 = ORIENTED_EDGE ( 'NONE', *, *, #339, .F. ) ;
#49 = ORIENTED_EDGE ( 'NONE', *, *, #164, .F. ) ;
#50 = LINE ( 'NONE', #166, #19 ) ;
#51 = FILL_AREA_STYLE_COLOUR ( '', #295 ) ;
#52 = ADVANCED_FACE ( 'NONE', ( #379 ), #39, .T. ) ;
#53 = CARTESIAN_POINT ( 'NONE',  ( 0.1199999999999999956, 0.000000000000000000, 0.000000000000000000 ) ) ;
#54 = CARTESIAN_POINT ( 'NONE',  ( 1.574999999999999956, 0.000000000000000000, 0.000000000000000000 ) ) ;
#55 = CIRCLE ( 'NONE', #243, 0.2500000000000000000 ) ;
#56 = CYLINDRICAL_SURFACE ( 'NONE', #104, 0.2500000000000000000 ) ;
#57 = FACE_OUTER_BOUND ( 'NONE', #6, .T. ) ;
#58 = DIRECTION ( 'NONE',  ( 0.000000000000000000, 0.000000000000000000, 1.000000000000000000 ) ) ;
#59 = DIRECTION ( 'NONE',  ( 0.000000000000000000, 0.000000000000000000, 1.000000000000000000 ) ) ;
#60 = AXIS2_PLACEMENT_3D ( 'NONE', #396, #204, #106 ) ;
#61 = CYLINDRICAL_SURFACE ( 'NONE', #34, 0.1875000000000000278 ) ;
#62 = CARTESIAN_POINT ( 'NONE',  ( 1.574999999999999956, 0.000000000000000000, 0.2500000000000000000 ) ) ;
#63 = EDGE_CURVE ( 'NONE', #356, #69, #218, .T. ) ;
#64 = ORIENTED_EDGE ( 'NONE', *, *, #158, .T. ) ;
#65 = CARTESIAN_POINT ( 'NONE',  ( 1.574999999999999956, 0.2500000000000000000, 0.000000000000000000 ) ) ;
#66 = CARTESIAN_POINT ( 'NONE',  ( 0.09999999999999999167, 0.000000000000000000, 0.1874999999999999167 ) ) ;
#67 = EDGE_CURVE ( 'NONE', #236, #219, #163, .T. ) ;
#68 = CARTESIAN_POINT ( 'NONE',  ( 0.000000000000000000, 0.000000000000000000, 0.1875000000000000278 ) ) ;
#69 = VERTEX_POINT ( 'NONE', #253 ) ;
#70 = VERTEX_POINT ( 'NONE', #66 ) ;
#71 = EDGE_LOOP ( 'NONE', ( #131, #221, #64, #330 ) ) ;
#72 = DIRECTION ( 'NONE',  ( -1.000000000000000000, -0.000000000000000000, -0.000000000000000000 ) ) ;
#73 = AXIS2_PLACEMENT_3D ( 'NONE', #391, #235, #303 ) ;
#74 = DIRECTION ( 'NONE',  ( -1.000000000000000000, -0.000000000000000000, -0.000000000000000000 ) ) ;
#75 = EDGE_CURVE ( 'NONE', #99, #390, #266, .T. ) ;
#76 = CARTESIAN_POINT ( 'NONE',  ( 0.000000000000000000, 0.000000000000000000, 0.000000000000000000 ) ) ;
#77 = CARTESIAN_POINT ( 'NONE',  ( 0.2111027254265793740, 0.000000000000000000, 0.000000000000000000 ) ) ;
#78 = CARTESIAN_POINT ( 'NONE',  ( 0.000000000000000000, 0.000000000000000000, 0.2500000000000000000 ) ) ;
#79 = DIRECTION ( 'NONE',  ( -1.000000000000000000, -0.000000000000000000, -0.000000000000000000 ) ) ;
#80 = CIRCLE ( 'NONE', #320, 0.1874999999999999167 ) ;
#81 = DIRECTION ( 'NONE',  ( -1.000000000000000000, -0.000000000000000000, -0.000000000000000000 ) ) ;
#82 = CARTESIAN_POINT ( 'NONE',  ( 1.574999999999999956, 2.296212748401288650E-17, -0.1875000000000000833 ) ) ;
#83 = ORIENTED_EDGE ( 'NONE', *, *, #75, .F. ) ;
#84 = DIRECTION ( 'NONE',  ( -1.000000000000000000, -0.000000000000000000, -0.000000000000000000 ) ) ;
#85 = EDGE_CURVE ( 'NONE', #354, #307, #349, .T. ) ;
#86 = DIRECTION ( 'NONE',  ( 0.000000000000000000, 0.000000000000000000, 1.000000000000000000 ) ) ;
#87 = FACE_OUTER_BOUND ( 'NONE', #355, .T. ) ;
#88 = DIRECTION ( 'NONE',  ( -1.000000000000000000, -0.000000000000000000, -0.000000000000000000 ) ) ;
#89 = CARTESIAN_POINT ( 'NONE',  ( 0.1199999999999999956, 0.000000000000000000, 0.5899999999999999689 ) ) ;
#90 = EDGE_CURVE ( 'NONE', #10, #323, #324, .T. ) ;
#91 = VECTOR ( 'NONE', #45, 39.37007874015748143 ) ;
#92 = CARTESIAN_POINT ( 'NONE',  ( 0.2111027254265793740, 5.143516556418884407E-17, -0.2500000000000000000 ) ) ;
#93 = AXIS2_PLACEMENT_3D ( 'NONE', #120, #278, #30 ) ;
#94 = LENGTH_MEASURE_WITH_UNIT ( LENGTH_MEASURE( 0.02539999999999999897 ), #194 );
#95 = ORIENTED_EDGE ( 'NONE', *, *, #227, .T. ) ;
#96 = ORIENTED_EDGE ( 'NONE', *, *, #130, .F. ) ;
#97 = DIRECTION ( 'NONE',  ( -1.000000000000000000, -0.000000000000000000, -0.000000000000000000 ) ) ;
#98 = ORIENTED_EDGE ( 'NONE', *, *, #389, .T. ) ;
#99 = VERTEX_POINT ( 'NONE', #381 ) ;
#100 = AXIS2_PLACEMENT_3D ( 'NONE', #322, #368, #58 ) ;
#101 = EDGE_CURVE ( 'NONE', #321, #70, #156, .T. ) ;
#102 = ORIENTED_EDGE ( 'NONE', *, *, #306, .T. ) ;
#103 = DIRECTION ( 'NONE',  ( -1.000000000000000000, -0.000000000000000000, -0.000000000000000000 ) ) ;
#104 = AXIS2_PLACEMENT_3D ( 'NONE', #23, #139, #341 ) ;
#105 = APPLICATION_PROTOCOL_DEFINITION ( 'draft international standard', 'automotive_design', 1998, #361 ) ;
#106 = DIRECTION ( 'NONE',  ( 0.000000000000000000, 0.000000000000000000, 1.000000000000000000 ) ) ;
#107 = DIRECTION ( 'NONE',  ( -1.000000000000000000, -0.000000000000000000, -0.000000000000000000 ) ) ;
#108 = AXIS2_PLACEMENT_3D ( 'NONE', #184, #37, #152 ) ;
#109 = MECHANICAL_DESIGN_GEOMETRIC_PRESENTATION_REPRESENTATION (  '', ( #252 ), #177 ) ;
#110 = AXIS2_PLACEMENT_3D ( 'NONE', #142, #214, #275 ) ;
#111 = APPLICATION_PROTOCOL_DEFINITION ( 'draft international standard', 'automotive_design', 1998, #273 ) ;
#112 = FACE_OUTER_BOUND ( 'NONE', #359, .T. ) ;
#113 = ORIENTED_EDGE ( 'NONE', *, *, #146, .T. ) ;
#114 = CARTESIAN_POINT ( 'NONE',  ( 0.2111027254265793740, 0.000000000000000000, 0.2500000000000000000 ) ) ;
#115 = CARTESIAN_POINT ( 'NONE',  ( 0.000000000000000000, 0.000000000000000000, 0.000000000000000000 ) ) ;
#116 = EDGE_CURVE ( 'NONE', #307, #354, #217, .T. ) ;
#117 = DIRECTION ( 'NONE',  ( -1.000000000000000000, -0.000000000000000000, -0.000000000000000000 ) ) ;
#118 = PRODUCT_DEFINITION_CONTEXT ( 'detailed design', #361, 'design' ) ;
#119 = FILL_AREA_STYLE ('',( #31 ) ) ;
#120 = CARTESIAN_POINT ( 'NONE',  ( 0.09999999999999999167, 0.1874999999999999167, 0.000000000000000000 ) ) ;
#121 = ORIENTED_EDGE ( 'NONE', *, *, #85, .F. ) ;
#122 = LINE ( 'NONE', #180, #183 ) ;
#123 = ADVANCED_FACE ( 'NONE', ( #162 ), #305, .F. ) ;
#124 = DIRECTION ( 'NONE',  ( -1.000000000000000000, -0.000000000000000000, -0.000000000000000000 ) ) ;
#125 = CARTESIAN_POINT ( 'NONE',  ( 0.2111027254265793740, 0.000000000000000000, 0.2500000000000000000 ) ) ;
#126 = CARTESIAN_POINT ( 'NONE',  ( 0.000000000000000000, 0.000000000000000000, 0.000000000000000000 ) ) ;
#127 =( GEOMETRIC_REPRESENTATION_CONTEXT ( 3 ) GLOBAL_UNCERTAINTY_ASSIGNED_CONTEXT ( ( #254 ) ) GLOBAL_UNIT_ASSIGNED_CONTEXT ( ( #377, #188, #304 ) ) REPRESENTATION_CONTEXT ( 'NONE', 'WORKASPACE' ) );
#128 = ORIENTED_EDGE ( 'NONE', *, *, #63, .F. ) ;
#129 = ORIENTED_EDGE ( 'NONE', *, *, #389, .F. ) ;
#130 = EDGE_CURVE ( 'NONE', #150, #291, #399, .T. ) ;
#131 = ORIENTED_EDGE ( 'NONE', *, *, #116, .F. ) ;
#132 = CIRCLE ( 'NONE', #43, 0.5899999999999999689 ) ;
#133 = ORIENTED_EDGE ( 'NONE', *, *, #116, .T. ) ;
#134 = AXIS2_PLACEMENT_3D ( 'NONE', #115, #365, #212 ) ;
#135 = EDGE_CURVE ( 'NONE', #307, #219, #155, .T. ) ;
#136 =( LENGTH_UNIT ( ) NAMED_UNIT ( * ) SI_UNIT ( $, .METRE. ) );
#137 = SURFACE_STYLE_FILL_AREA ( #367 ) ;
#138 = EDGE_CURVE ( 'NONE', #323, #150, #50, .T. ) ;
#139 = DIRECTION ( 'NONE',  ( -1.000000000000000000, -0.000000000000000000, -0.000000000000000000 ) ) ;
#140 = DIMENSIONAL_EXPONENTS ( 1.000000000000000000, 0.000000000000000000, 0.000000000000000000, 0.000000000000000000, 0.000000000000000000, 0.000000000000000000, 0.000000000000000000 ) ;
#141 = VERTEX_POINT ( 'NONE', #125 ) ;
#142 = CARTESIAN_POINT ( 'NONE',  ( 0.000000000000000000, 0.000000000000000000, 0.000000000000000000 ) ) ;
#143 = VECTOR ( 'NONE', #81, 39.37007874015748143 ) ;
#144 = AXIS2_PLACEMENT_3D ( 'NONE', #54, #74, #332 ) ;
#145 = CARTESIAN_POINT ( 'NONE',  ( 0.000000000000000000, 0.000000000000000000, 0.000000000000000000 ) ) ;
#146 = EDGE_CURVE ( 'NONE', #70, #69, #80, .T. ) ;
#147 = CARTESIAN_POINT ( 'NONE',  ( 1.574999999999999956, 0.000000000000000000, 0.1875000000000001110 ) ) ;
#148 = DIRECTION ( 'NONE',  ( 0.000000000000000000, 0.000000000000000000, 1.000000000000000000 ) ) ;
#149 = AXIS2_PLACEMENT_3D ( 'NONE', #76, #103, #200 ) ;
#150 = VERTEX_POINT ( 'NONE', #272 ) ;
#151 = FACE_OUTER_BOUND ( 'NONE', #386, .T. ) ;
#152 = DIRECTION ( 'NONE',  ( 0.000000000000000000, 0.000000000000000000, 1.000000000000000000 ) ) ;
#153 = EDGE_CURVE ( 'NONE', #390, #141, #17, .T. ) ;
#154 = ORIENTED_EDGE ( 'NONE', *, *, #138, .T. ) ;
#155 = LINE ( 'NONE', #197, #91 ) ;
#156 = LINE ( 'NONE', #68, #192 ) ;
#157 = CARTESIAN_POINT ( 'NONE',  ( 0.09999999999999999167, 0.000000000000000000, 0.000000000000000000 ) ) ;
#158 = EDGE_CURVE ( 'NONE', #219, #236, #382, .T. ) ;
#159 = ORIENTED_EDGE ( 'NONE', *, *, #101, .T. ) ;
#160 = ORIENTED_EDGE ( 'NONE', *, *, #227, .F. ) ;
#161 = ORIENTED_EDGE ( 'NONE', *, *, #63, .T. ) ;
#162 = FACE_OUTER_BOUND ( 'NONE', #71, .T. ) ;
#163 = CIRCLE ( 'NONE', #211, 0.3380000000000000782 ) ;
#164 = EDGE_CURVE ( 'NONE', #290, #323, #26, .T. ) ;
#165 = ORIENTED_EDGE ( 'NONE', *, *, #40, .T. ) ;
#166 = CARTESIAN_POINT ( 'NONE',  ( 0.000000000000000000, 7.225416114969383947E-17, -0.5899999999999999689 ) ) ;
#167 = DIRECTION ( 'NONE',  ( -1.000000000000000000, -0.000000000000000000, -0.000000000000000000 ) ) ;
#168 = FACE_BOUND ( 'NONE', #223, .T. ) ;
#169 = PRODUCT_RELATED_PRODUCT_CATEGORY ( 'part', '', ( #310 ) ) ;
#170 = LENGTH_MEASURE_WITH_UNIT ( LENGTH_MEASURE( 0.02539999999999999897 ), #185 );
#171 = CARTESIAN_POINT ( 'NONE',  ( 0.000000000000000000, 0.000000000000000000, 0.000000000000000000 ) ) ;
#172 = DIRECTION ( 'NONE',  ( 0.000000000000000000, 0.000000000000000000, 1.000000000000000000 ) ) ;
#173 = DIMENSIONAL_EXPONENTS ( 1.000000000000000000, 0.000000000000000000, 0.000000000000000000, 0.000000000000000000, 0.000000000000000000, 0.000000000000000000, 0.000000000000000000 ) ;
#174 = CYLINDRICAL_SURFACE ( 'NONE', #110, 0.2500000000000000000 ) ;
#175 = ORIENTED_EDGE ( 'NONE', *, *, #286, .F. ) ;
#176 = LINE ( 'NONE', #283, #336 ) ;
#177 =( GEOMETRIC_REPRESENTATION_CONTEXT ( 3 ) GLOBAL_UNCERTAINTY_ASSIGNED_CONTEXT ( ( #38 ) ) GLOBAL_UNIT_ASSIGNED_CONTEXT ( ( #264, #18, #269 ) ) REPRESENTATION_CONTEXT ( 'NONE', 'WORKASPACE' ) );
#178 = SURFACE_SIDE_STYLE ('',( #240 ) ) ;
#179 = DIRECTION ( 'NONE',  ( -1.000000000000000000, -0.000000000000000000, -0.000000000000000000 ) ) ;
#180 = CARTESIAN_POINT ( 'NONE',  ( 0.000000000000000000, 0.000000000000000000, 0.5899999999999999689 ) ) ;
#181 = DIRECTION ( 'NONE',  ( 0.000000000000000000, 0.000000000000000000, 1.000000000000000000 ) ) ;
#182 = CARTESIAN_POINT ( 'NONE',  ( 0.000000000000000000, 0.000000000000000000, 0.000000000000000000 ) ) ;
#183 = VECTOR ( 'NONE', #117, 39.37007874015748143 ) ;
#184 = CARTESIAN_POINT ( 'NONE',  ( 1.574999999999999956, 0.000000000000000000, 0.000000000000000000 ) ) ;
#185 =( LENGTH_UNIT ( ) NAMED_UNIT ( * ) SI_UNIT ( $, .METRE. ) );
#186 = ORIENTED_EDGE ( 'NONE', *, *, #90, .F. ) ;
#187 = EDGE_LOOP ( 'NONE', ( #12, #325 ) ) ;
#188 =( NAMED_UNIT ( * ) PLANE_ANGLE_UNIT ( ) SI_UNIT ( $, .RADIAN. ) );
#189 = DIRECTION ( 'NONE',  ( 0.000000000000000000, 0.000000000000000000, 1.000000000000000000 ) ) ;
#190 = ADVANCED_FACE ( 'NONE', ( #230 ), #398, .F. ) ;
#191 = EDGE_LOOP ( 'NONE', ( #373, #121, #24, #13 ) ) ;
#192 = VECTOR ( 'NONE', #97, 39.37007874015748143 ) ;
#193 = EDGE_LOOP ( 'NONE', ( #358, #293, #288, #196 ) ) ;
#194 =( LENGTH_UNIT ( ) NAMED_UNIT ( * ) SI_UNIT ( $, .METRE. ) );
#195 = EDGE_LOOP ( 'NONE', ( #233, #9, #340, #96 ) ) ;
#196 = ORIENTED_EDGE ( 'NONE', *, *, #153, .F. ) ;
#197 = CARTESIAN_POINT ( 'NONE',  ( 0.000000000000000000, 4.139306181118054535E-17, -0.3380000000000000782 ) ) ;
#198 = AXIS2_PLACEMENT_3D ( 'NONE', #171, #107, #363 ) ;
#199 = AXIS2_PLACEMENT_3D ( 'NONE', #333, #232, #301 ) ;
#200 = DIRECTION ( 'NONE',  ( 0.000000000000000000, 0.000000000000000000, 1.000000000000000000 ) ) ;
#201 = FACE_OUTER_BOUND ( 'NONE', #239, .T. ) ;
#202 = EDGE_CURVE ( 'NONE', #323, #290, #132, .T. ) ;
#203 = AXIS2_PLACEMENT_3D ( 'NONE', #215, #88, #387 ) ;
#204 = DIRECTION ( 'NONE',  ( -1.000000000000000000, -0.000000000000000000, -0.000000000000000000 ) ) ;
#205 = PRESENTATION_LAYER_ASSIGNMENT (  '', '', ( #351 ) ) ;
#206 = EDGE_CURVE ( 'NONE', #390, #99, #259, .T. ) ;
#207 = ORIENTED_EDGE ( 'NONE', *, *, #85, .T. ) ;
#208 = SHAPE_DEFINITION_REPRESENTATION ( #302, #364 ) ;
#209 = FACE_OUTER_BOUND ( 'NONE', #224, .T. ) ;
#210 = CARTESIAN_POINT ( 'NONE',  ( 0.000000000000000000, 3.061616997868383018E-17, -0.2500000000000000000 ) ) ;
#211 = AXIS2_PLACEMENT_3D ( 'NONE', #126, #3, #189 ) ;
#212 = DIRECTION ( 'NONE',  ( 1.000000000000000000, 0.000000000000000000, 0.000000000000000000 ) ) ;
#213 = DIRECTION ( 'NONE',  ( 0.000000000000000000, 0.000000000000000000, 1.000000000000000000 ) ) ;
#214 = DIRECTION ( 'NONE',  ( -1.000000000000000000, -0.000000000000000000, -0.000000000000000000 ) ) ;
#215 = CARTESIAN_POINT ( 'NONE',  ( 0.000000000000000000, 0.000000000000000000, 0.000000000000000000 ) ) ;
#216 = CARTESIAN_POINT ( 'NONE',  ( 0.1000000000000000056, 4.139306181118053303E-17, -0.3379999999999999671 ) ) ;
#217 = CIRCLE ( 'NONE', #100, 0.3379999999999999671 ) ;
#218 = LINE ( 'NONE', #46, #294 ) ;
#219 = VERTEX_POINT ( 'NONE', #22 ) ;
#220 = ADVANCED_FACE ( 'NONE', ( #168, #201 ), #16, .F. ) ;
#221 = ORIENTED_EDGE ( 'NONE', *, *, #135, .T. ) ;
#222 = ORIENTED_EDGE ( 'NONE', *, *, #395, .T. ) ;
#223 = EDGE_LOOP ( 'NONE', ( #328, #250 ) ) ;
#224 = EDGE_LOOP ( 'NONE', ( #165, #287, #49, #282 ) ) ;
#225 = MANIFOLD_SOLID_BREP ( 'Revolve1', #392 ) ;
#226 = ORIENTED_EDGE ( 'NONE', *, *, #101, .F. ) ;
#227 = EDGE_CURVE ( 'NONE', #10, #141, #357, .T. ) ;
#228 = DIRECTION ( 'NONE',  ( 0.000000000000000000, 0.000000000000000000, 1.000000000000000000 ) ) ;
#229 = AXIS2_PLACEMENT_3D ( 'NONE', #77, #334, #270 ) ;
#230 = FACE_OUTER_BOUND ( 'NONE', #317, .T. ) ;
#231 = EDGE_CURVE ( 'NONE', #69, #70, #267, .T. ) ;
#232 = DIRECTION ( 'NONE',  ( 1.000000000000000000, 0.000000000000000000, 0.000000000000000000 ) ) ;
#233 = ORIENTED_EDGE ( 'NONE', *, *, #138, .F. ) ;
#234 = VECTOR ( 'NONE', #28, 39.37007874015748143 ) ;
#235 = DIRECTION ( 'NONE',  ( -1.000000000000000000, -0.000000000000000000, -0.000000000000000000 ) ) ;
#236 = VERTEX_POINT ( 'NONE', #297 ) ;
#237 =( NAMED_UNIT ( * ) SI_UNIT ( $, .STERADIAN. ) SOLID_ANGLE_UNIT ( ) );
#238 = FACE_OUTER_BOUND ( 'NONE', #352, .T. ) ;
#239 = EDGE_LOOP ( 'NONE', ( #261, #257 ) ) ;
#240 = SURFACE_STYLE_FILL_AREA ( #119 ) ;
#241 = CARTESIAN_POINT ( 'NONE',  ( 1.574999999999999956, 0.000000000000000000, 0.000000000000000000 ) ) ;
#242 = DIRECTION ( 'NONE',  ( 0.000000000000000000, 0.000000000000000000, 1.000000000000000000 ) ) ;
#243 = AXIS2_PLACEMENT_3D ( 'NONE', #346, #247, #181 ) ;
#244 = AXIS2_PLACEMENT_3D ( 'NONE', #342, #376, #86 ) ;
#245 = ADVANCED_FACE ( 'NONE', ( #338 ), #56, .T. ) ;
#246 = PLANE ( 'NONE',  #93 ) ;
#247 = DIRECTION ( 'NONE',  ( -1.000000000000000000, -0.000000000000000000, -0.000000000000000000 ) ) ;
#248 = CARTESIAN_POINT ( 'NONE',  ( 0.000000000000000000, 0.000000000000000000, 0.000000000000000000 ) ) ;
#249 = DIRECTION ( 'NONE',  ( -0.2588190451025145222, 1.182917971378671814E-16, -0.9659258262890699775 ) ) ;
#250 = ORIENTED_EDGE ( 'NONE', *, *, #158, .F. ) ;
#251 = ADVANCED_FACE ( 'NONE', ( #57 ), #61, .F. ) ;
#252 = STYLED_ITEM ( 'NONE', ( #370 ), #225 ) ;
#253 = CARTESIAN_POINT ( 'NONE',  ( 0.09999999999999999167, 2.296212748401286801E-17, -0.1874999999999999167 ) ) ;
#254 = UNCERTAINTY_MEASURE_WITH_UNIT (LENGTH_MEASURE( 1.000000000000000082E-05 ), #377, 'distance_accuracy_value', 'NONE');
#255 = DIRECTION ( 'NONE',  ( 0.000000000000000000, 0.000000000000000000, 1.000000000000000000 ) ) ;
#256 = ORIENTED_EDGE ( 'NONE', *, *, #202, .F. ) ;
#257 = ORIENTED_EDGE ( 'NONE', *, *, #130, .T. ) ;
#258 = VECTOR ( 'NONE', #249, 39.37007874015748143 ) ;
#259 = CIRCLE ( 'NONE', #144, 0.2500000000000000000 ) ;
#260 = CIRCLE ( 'NONE', #393, 0.1875000000000001110 ) ;
#261 = ORIENTED_EDGE ( 'NONE', *, *, #339, .T. ) ;
#262 = CARTESIAN_POINT ( 'NONE',  ( 0.000000000000000000, 0.000000000000000000, 0.000000000000000000 ) ) ;
#263 = LENGTH_MEASURE_WITH_UNIT ( LENGTH_MEASURE( 0.02539999999999999897 ), #136 );
#264 =( CONVERSION_BASED_UNIT ( 'INCH', #263 ) LENGTH_UNIT ( ) NAMED_UNIT ( #140 ) );
#265 = ADVANCED_FACE ( 'NONE', ( #151 ), #380, .T. ) ;
#266 = CIRCLE ( 'NONE', #108, 0.2500000000000000000 ) ;
#267 = CIRCLE ( 'NONE', #60, 0.1874999999999999167 ) ;
#268 = UNCERTAINTY_MEASURE_WITH_UNIT (LENGTH_MEASURE( 1.000000000000000082E-05 ), #371, 'distance_accuracy_value', 'NONE');
#269 =( NAMED_UNIT ( * ) SI_UNIT ( $, .STERADIAN. ) SOLID_ANGLE_UNIT ( ) );
#270 = DIRECTION ( 'NONE',  ( 0.000000000000000000, 0.000000000000000000, 1.000000000000000000 ) ) ;
#271 = EDGE_CURVE ( 'NONE', #354, #236, #176, .T. ) ;
#272 = CARTESIAN_POINT ( 'NONE',  ( 0.000000000000000000, 7.225416114969383947E-17, -0.5899999999999999689 ) ) ;
#273 = APPLICATION_CONTEXT ( 'automotive_design' ) ;
#274 = AXIS2_PLACEMENT_3D ( 'NONE', #326, #72, #11 ) ;
#275 = DIRECTION ( 'NONE',  ( 0.000000000000000000, 0.000000000000000000, 1.000000000000000000 ) ) ;
#276 =( GEOMETRIC_REPRESENTATION_CONTEXT ( 3 ) GLOBAL_UNCERTAINTY_ASSIGNED_CONTEXT ( ( #268 ) ) GLOBAL_UNIT_ASSIGNED_CONTEXT ( ( #371, #308, #237 ) ) REPRESENTATION_CONTEXT ( 'NONE', 'WORKASPACE' ) );
#277 = CARTESIAN_POINT ( 'NONE',  ( 0.1199999999999999956, 7.225416114969383947E-17, -0.5899999999999999689 ) ) ;
#278 = DIRECTION ( 'NONE',  ( 1.000000000000000000, 0.000000000000000000, 0.000000000000000000 ) ) ;
#279 = ADVANCED_FACE ( 'NONE', ( #112, #309 ), #345, .F. ) ;
#280 = FACE_OUTER_BOUND ( 'NONE', #191, .T. ) ;
#281 = AXIS2_PLACEMENT_3D ( 'NONE', #384, #124, #385 ) ;
#282 = ORIENTED_EDGE ( 'NONE', *, *, #306, .F. ) ;
#283 = CARTESIAN_POINT ( 'NONE',  ( 0.000000000000000000, 0.000000000000000000, 0.3380000000000000782 ) ) ;
#284 = DIRECTION ( 'NONE',  ( -1.000000000000000000, -0.000000000000000000, -0.000000000000000000 ) ) ;
#285 = DIRECTION ( 'NONE',  ( 0.000000000000000000, 0.000000000000000000, 1.000000000000000000 ) ) ;
#286 = EDGE_CURVE ( 'NONE', #290, #291, #122, .T. ) ;
#287 = ORIENTED_EDGE ( 'NONE', *, *, #90, .T. ) ;
#288 = ORIENTED_EDGE ( 'NONE', *, *, #40, .F. ) ;
#289 = DIRECTION ( 'NONE',  ( -1.000000000000000000, -0.000000000000000000, -0.000000000000000000 ) ) ;
#290 = VERTEX_POINT ( 'NONE', #89 ) ;
#291 = VERTEX_POINT ( 'NONE', #314 ) ;
#292 = CARTESIAN_POINT ( 'NONE',  ( 0.2111027254265793740, 0.000000000000000000, 0.000000000000000000 ) ) ;
#293 = ORIENTED_EDGE ( 'NONE', *, *, #298, .T. ) ;
#294 = VECTOR ( 'NONE', #348, 39.37007874015748143 ) ;
#295 = COLOUR_RGB ( '',0.6470588235294117974, 0.6196078431372549211, 0.5882352941176470784 ) ;
#296 = AXIS2_PLACEMENT_3D ( 'NONE', #316, #32, #148 ) ;
#297 = CARTESIAN_POINT ( 'NONE',  ( 0.000000000000000000, 0.000000000000000000, 0.3380000000000000782 ) ) ;
#298 = EDGE_CURVE ( 'NONE', #99, #10, #311, .T. ) ;
#299 = SURFACE_SIDE_STYLE ('',( #137 ) ) ;
#300 = PRODUCT_CONTEXT ( 'NONE', #273, 'mechanical' ) ;
#301 = DIRECTION ( 'NONE',  ( 0.000000000000000000, 0.000000000000000000, -1.000000000000000000 ) ) ;
#302 = PRODUCT_DEFINITION_SHAPE ( 'NONE', 'NONE',  #329 ) ;
#303 = DIRECTION ( 'NONE',  ( 0.000000000000000000, 0.000000000000000000, 1.000000000000000000 ) ) ;
#304 =( NAMED_UNIT ( * ) SI_UNIT ( $, .STERADIAN. ) SOLID_ANGLE_UNIT ( ) );
#305 = CYLINDRICAL_SURFACE ( 'NONE', #335, 0.3380000000000000782 ) ;
#306 = EDGE_CURVE ( 'NONE', #141, #290, #25, .T. ) ;
#307 = VERTEX_POINT ( 'NONE', #216 ) ;
#308 =( NAMED_UNIT ( * ) PLANE_ANGLE_UNIT ( ) SI_UNIT ( $, .RADIAN. ) );
#309 = FACE_BOUND ( 'NONE', #397, .T. ) ;
#310 = PRODUCT ( '715105', '715105', '', ( #300 ) ) ;
#311 = LINE ( 'NONE', #210, #234 ) ;
#312 = AXIS2_PLACEMENT_3D ( 'NONE', #182, #35, #285 ) ;
#313 = SURFACE_STYLE_USAGE ( .BOTH. , #178 ) ;
#314 = CARTESIAN_POINT ( 'NONE',  ( 0.000000000000000000, 0.000000000000000000, 0.5899999999999999689 ) ) ;
#315 = ADVANCED_FACE ( 'NONE', ( #347, #87 ), #246, .F. ) ;
#316 = CARTESIAN_POINT ( 'NONE',  ( 1.574999999999999956, 0.000000000000000000, 0.000000000000000000 ) ) ;
#317 = EDGE_LOOP ( 'NONE', ( #5, #161, #369, #226 ) ) ;
#318 = CONICAL_SURFACE ( 'NONE', #42, 0.2500000000000000000, 1.308996938995753645 ) ;
#319 = DIRECTION ( 'NONE',  ( -1.000000000000000000, -0.000000000000000000, -0.000000000000000000 ) ) ;
#320 = AXIS2_PLACEMENT_3D ( 'NONE', #157, #289, #362 ) ;
#321 = VERTEX_POINT ( 'NONE', #147 ) ;
#322 = CARTESIAN_POINT ( 'NONE',  ( 0.1000000000000000056, 0.000000000000000000, 0.000000000000000000 ) ) ;
#323 = VERTEX_POINT ( 'NONE', #277 ) ;
#324 = LINE ( 'NONE', #41, #258 ) ;
#325 = ORIENTED_EDGE ( 'NONE', *, *, #231, .F. ) ;
#326 = CARTESIAN_POINT ( 'NONE',  ( 0.000000000000000000, 0.000000000000000000, 0.000000000000000000 ) ) ;
#327 = FACE_OUTER_BOUND ( 'NONE', #1, .T. ) ;
#328 = ORIENTED_EDGE ( 'NONE', *, *, #67, .F. ) ;
#329 = PRODUCT_DEFINITION ( 'UNKNOWN', '', #21, #118 ) ;
#330 = ORIENTED_EDGE ( 'NONE', *, *, #271, .F. ) ;
#331 = ORIENTED_EDGE ( 'NONE', *, *, #298, .F. ) ;
#332 = DIRECTION ( 'NONE',  ( 0.000000000000000000, 0.000000000000000000, 1.000000000000000000 ) ) ;
#333 = CARTESIAN_POINT ( 'NONE',  ( 0.000000000000000000, 0.3380000000000000782, 0.000000000000000000 ) ) ;
#334 = DIRECTION ( 'NONE',  ( -1.000000000000000000, -0.000000000000000000, -0.000000000000000000 ) ) ;
#335 = AXIS2_PLACEMENT_3D ( 'NONE', #262, #79, #172 ) ;
#336 = VECTOR ( 'NONE', #400, 39.37007874015748143 ) ;
#337 = AXIS2_PLACEMENT_3D ( 'NONE', #145, #179, #242 ) ;
#338 = FACE_OUTER_BOUND ( 'NONE', #193, .T. ) ;
#339 = EDGE_CURVE ( 'NONE', #291, #150, #14, .T. ) ;
#340 = ORIENTED_EDGE ( 'NONE', *, *, #286, .T. ) ;
#341 = DIRECTION ( 'NONE',  ( 0.000000000000000000, 0.000000000000000000, 1.000000000000000000 ) ) ;
#342 = CARTESIAN_POINT ( 'NONE',  ( 0.2111027254265793740, 0.000000000000000000, 0.000000000000000000 ) ) ;
#343 = ADVANCED_FACE ( 'NONE', ( #238 ), #174, .T. ) ;
#344 = CARTESIAN_POINT ( 'NONE',  ( 0.000000000000000000, 0.000000000000000000, 0.000000000000000000 ) ) ;
#345 = PLANE ( 'NONE',  #388 ) ;
#346 = CARTESIAN_POINT ( 'NONE',  ( 0.2111027254265793740, 0.000000000000000000, 0.000000000000000000 ) ) ;
#347 = FACE_BOUND ( 'NONE', #187, .T. ) ;
#348 = DIRECTION ( 'NONE',  ( -1.000000000000000000, -0.000000000000000000, -0.000000000000000000 ) ) ;
#349 = CIRCLE ( 'NONE', #281, 0.3379999999999999671 ) ;
#350 = DIRECTION ( 'NONE',  ( -1.000000000000000000, -0.000000000000000000, -0.000000000000000000 ) ) ;
#351 = STYLED_ITEM ( 'NONE', ( #29 ), #364 ) ;
#352 = EDGE_LOOP ( 'NONE', ( #331, #353, #44, #160 ) ) ;
#353 = ORIENTED_EDGE ( 'NONE', *, *, #75, .T. ) ;
#354 = VERTEX_POINT ( 'NONE', #378 ) ;
#355 = EDGE_LOOP ( 'NONE', ( #207, #133 ) ) ;
#356 = VERTEX_POINT ( 'NONE', #82 ) ;
#357 = CIRCLE ( 'NONE', #229, 0.2500000000000000000 ) ;
#358 = ORIENTED_EDGE ( 'NONE', *, *, #206, .T. ) ;
#359 = EDGE_LOOP ( 'NONE', ( #47, #83 ) ) ;
#360 = ADVANCED_FACE ( 'NONE', ( #209 ), #36, .T. ) ;
#361 = APPLICATION_CONTEXT ( 'automotive_design' ) ;
#362 = DIRECTION ( 'NONE',  ( 0.000000000000000000, 0.000000000000000000, 1.000000000000000000 ) ) ;
#363 = DIRECTION ( 'NONE',  ( 0.000000000000000000, 0.000000000000000000, 1.000000000000000000 ) ) ;
#364 = ADVANCED_BREP_SHAPE_REPRESENTATION ( '715105', ( #225, #134 ), #276 ) ;
#365 = DIRECTION ( 'NONE',  ( 0.000000000000000000, 0.000000000000000000, 1.000000000000000000 ) ) ;
#366 = DIMENSIONAL_EXPONENTS ( 1.000000000000000000, 0.000000000000000000, 0.000000000000000000, 0.000000000000000000, 0.000000000000000000, 0.000000000000000000, 0.000000000000000000 ) ;
#367 = FILL_AREA_STYLE ('',( #51 ) ) ;
#368 = DIRECTION ( 'NONE',  ( -1.000000000000000000, -0.000000000000000000, -0.000000000000000000 ) ) ;
#369 = ORIENTED_EDGE ( 'NONE', *, *, #231, .T. ) ;
#370 = PRESENTATION_STYLE_ASSIGNMENT (( #394 ) ) ;
#371 =( CONVERSION_BASED_UNIT ( 'INCH', #170 ) LENGTH_UNIT ( ) NAMED_UNIT ( #173 ) );
#372 = DIRECTION ( 'NONE',  ( -0.2588190451025145222, 0.000000000000000000, 0.9659258262890699775 ) ) ;
#373 = ORIENTED_EDGE ( 'NONE', *, *, #135, .F. ) ;
#374 = DIRECTION ( 'NONE',  ( -0.000000000000000000, 0.000000000000000000, 1.000000000000000000 ) ) ;
#375 = PRESENTATION_LAYER_ASSIGNMENT (  '', '', ( #252 ) ) ;
#376 = DIRECTION ( 'NONE',  ( -1.000000000000000000, -0.000000000000000000, -0.000000000000000000 ) ) ;
#377 =( CONVERSION_BASED_UNIT ( 'INCH', #94 ) LENGTH_UNIT ( ) NAMED_UNIT ( #366 ) );
#378 = CARTESIAN_POINT ( 'NONE',  ( 0.1000000000000000056, 0.000000000000000000, 0.3379999999999999671 ) ) ;
#379 = FACE_OUTER_BOUND ( 'NONE', #195, .T. ) ;
#380 = CYLINDRICAL_SURFACE ( 'NONE', #20, 0.5899999999999999689 ) ;
#381 = CARTESIAN_POINT ( 'NONE',  ( 1.574999999999999956, 3.061616997868383018E-17, -0.2500000000000000000 ) ) ;
#382 = CIRCLE ( 'NONE', #198, 0.3380000000000000782 ) ;
#383 = CIRCLE ( 'NONE', #296, 0.1875000000000001110 ) ;
#384 = CARTESIAN_POINT ( 'NONE',  ( 0.1000000000000000056, 0.000000000000000000, 0.000000000000000000 ) ) ;
#385 = DIRECTION ( 'NONE',  ( 0.000000000000000000, 0.000000000000000000, 1.000000000000000000 ) ) ;
#386 = EDGE_LOOP ( 'NONE', ( #33, #154, #48, #175 ) ) ;
#387 = DIRECTION ( 'NONE',  ( 0.000000000000000000, 0.000000000000000000, 1.000000000000000000 ) ) ;
#388 = AXIS2_PLACEMENT_3D ( 'NONE', #65, #2, #374 ) ;
#389 = EDGE_CURVE ( 'NONE', #321, #356, #260, .T. ) ;
#390 = VERTEX_POINT ( 'NONE', #62 ) ;
#391 = CARTESIAN_POINT ( 'NONE',  ( 0.1199999999999999956, 0.000000000000000000, 0.000000000000000000 ) ) ;
#392 = CLOSED_SHELL ( 'NONE', ( #190, #245, #360, #265, #123, #401, #220, #52, #8, #343, #279, #251, #315 ) ) ;
#393 = AXIS2_PLACEMENT_3D ( 'NONE', #241, #319, #213 ) ;
#394 = SURFACE_STYLE_USAGE ( .BOTH. , #299 ) ;
#395 = EDGE_CURVE ( 'NONE', #356, #321, #383, .T. ) ;
#396 = CARTESIAN_POINT ( 'NONE',  ( 0.09999999999999999167, 0.000000000000000000, 0.000000000000000000 ) ) ;
#397 = EDGE_LOOP ( 'NONE', ( #98, #222 ) ) ;
#398 = CYLINDRICAL_SURFACE ( 'NONE', #149, 0.1875000000000000278 ) ;
#399 = CIRCLE ( 'NONE', #274, 0.5899999999999999689 ) ;
#400 = DIRECTION ( 'NONE',  ( -1.000000000000000000, -0.000000000000000000, -0.000000000000000000 ) ) ;
#401 = ADVANCED_FACE ( 'NONE', ( #280 ), #403, .F. ) ;
#402 = DIRECTION ( 'NONE',  ( 0.000000000000000000, 0.000000000000000000, 1.000000000000000000 ) ) ;
#403 = CYLINDRICAL_SURFACE ( 'NONE', #312, 0.3380000000000000782 ) ;
ENDSEC;
END-ISO-10303-21;
