ISO-10303-21;
HEADER;
FILE_DESCRIPTION (( 'STEP AP214' ),
    '1' );
FILE_NAME ('715110.STEP',
    '2023-12-30T09:15:51',
    ( '' ),
    ( '' ),
    'SwSTEP 2.0',
    'SolidWorks 2022',
    '' );
FILE_SCHEMA (( 'AUTOMOTIVE_DESIGN' ));
ENDSEC;

DATA;
#1 = LENGTH_MEASURE_WITH_UNIT ( LENGTH_MEASURE( 0.02539999999999999897 ), #372 );
#2 = ORIENTED_EDGE ( 'NONE', *, *, #141, .F. ) ;
#3 = PRODUCT_DEFINITION_CONTEXT ( 'detailed design', #344, 'design' ) ;
#4 = DIRECTION ( 'NONE',  ( 0.000000000000000000, 0.000000000000000000, 1.000000000000000000 ) ) ;
#5 = EDGE_LOOP ( 'NONE', ( #373, #164 ) ) ;
#6 = DIRECTION ( 'NONE',  ( -0.000000000000000000, 1.000000000000000000, -0.000000000000000000 ) ) ;
#7 = CYLINDRICAL_SURFACE ( 'NONE', #129, 0.3100000000000001088 ) ;
#8 = ADVANCED_FACE ( 'NONE', ( #236 ), #384, .F. ) ;
#9 = ORIENTED_EDGE ( 'NONE', *, *, #181, .F. ) ;
#10 = CIRCLE ( 'NONE', #281, 0.5899999999999999689 ) ;
#11 = CARTESIAN_POINT ( 'NONE',  ( 0.000000000000000000, 0.000000000000000000, 0.000000000000000000 ) ) ;
#12 = DIRECTION ( 'NONE',  ( -0.000000000000000000, 1.000000000000000000, -0.000000000000000000 ) ) ;
#13 = DIRECTION ( 'NONE',  ( 0.000000000000000000, 0.000000000000000000, 1.000000000000000000 ) ) ;
#14 = EDGE_CURVE ( 'NONE', #295, #212, #342, .T. ) ;
#15 = FACE_BOUND ( 'NONE', #244, .T. ) ;
#16 = EDGE_LOOP ( 'NONE', ( #239, #100, #266, #110 ) ) ;
#17 = AXIS2_PLACEMENT_3D ( 'NONE', #50, #126, #247 ) ;
#18 = LINE ( 'NONE', #152, #36 ) ;
#19 = SURFACE_STYLE_USAGE ( .BOTH. , #122 ) ;
#20 = EDGE_CURVE ( 'NONE', #203, #343, #337, .T. ) ;
#21 = DIRECTION ( 'NONE',  ( 0.000000000000000000, 0.000000000000000000, 1.000000000000000000 ) ) ;
#22 = DIMENSIONAL_EXPONENTS ( 1.000000000000000000, 0.000000000000000000, 0.000000000000000000, 0.000000000000000000, 0.000000000000000000, 0.000000000000000000, 0.000000000000000000 ) ;
#23 = LINE ( 'NONE', #91, #233 ) ;
#24 = DIRECTION ( 'NONE',  ( -0.000000000000000000, 1.000000000000000000, -0.000000000000000000 ) ) ;
#25 = DIRECTION ( 'NONE',  ( 0.000000000000000000, 0.000000000000000000, 1.000000000000000000 ) ) ;
#26 = LINE ( 'NONE', #336, #38 ) ;
#27 = FACE_OUTER_BOUND ( 'NONE', #49, .T. ) ;
#28 = PLANE ( 'NONE',  #319 ) ;
#29 = CIRCLE ( 'NONE', #85, 0.3425000000000000266 ) ;
#30 = CIRCLE ( 'NONE', #288, 0.3100000000000001643 ) ;
#31 = CLOSED_SHELL ( 'NONE', ( #207, #282, #58, #349, #292, #33, #167, #99, #131, #96, #307, #8, #111 ) ) ;
#32 = ORIENTED_EDGE ( 'NONE', *, *, #46, .F. ) ;
#33 = ADVANCED_FACE ( 'NONE', ( #27 ), #399, .F. ) ;
#34 = ORIENTED_EDGE ( 'NONE', *, *, #14, .F. ) ;
#35 = DIRECTION ( 'NONE',  ( -0.000000000000000000, 1.000000000000000000, -0.000000000000000000 ) ) ;
#36 = VECTOR ( 'NONE', #309, 39.37007874015748143 ) ;
#37 = DIRECTION ( 'NONE',  ( -0.000000000000000000, 1.000000000000000000, -0.000000000000000000 ) ) ;
#38 = VECTOR ( 'NONE', #128, 39.37007874015748143 ) ;
#39 = DIRECTION ( 'NONE',  ( -0.000000000000000000, 1.000000000000000000, -0.000000000000000000 ) ) ;
#40 = ORIENTED_EDGE ( 'NONE', *, *, #298, .F. ) ;
#41 = CARTESIAN_POINT ( 'NONE',  ( 0.000000000000000000, 0.000000000000000000, 0.000000000000000000 ) ) ;
#42 = ORIENTED_EDGE ( 'NONE', *, *, #190, .F. ) ;
#43 = CARTESIAN_POINT ( 'NONE',  ( 4.592425496802577300E-17, -1.574999999999999956, -0.3750000000000002220 ) ) ;
#44 = ORIENTED_EDGE ( 'NONE', *, *, #201, .F. ) ;
#45 = FACE_OUTER_BOUND ( 'NONE', #381, .T. ) ;
#46 = EDGE_CURVE ( 'NONE', #343, #203, #225, .T. ) ;
#47 = VERTEX_POINT ( 'NONE', #254 ) ;
#48 = DIRECTION ( 'NONE',  ( -0.000000000000000000, 1.000000000000000000, -0.000000000000000000 ) ) ;
#49 = EDGE_LOOP ( 'NONE', ( #9, #317, #321, #352 ) ) ;
#50 = CARTESIAN_POINT ( 'NONE',  ( 0.000000000000000000, 0.000000000000000000, 0.000000000000000000 ) ) ;
#51 = FACE_OUTER_BOUND ( 'NONE', #261, .T. ) ;
#52 = AXIS2_PLACEMENT_3D ( 'NONE', #41, #172, #237 ) ;
#53 = AXIS2_PLACEMENT_3D ( 'NONE', #253, #367, #185 ) ;
#54 = AXIS2_PLACEMENT_3D ( 'NONE', #245, #48, #357 ) ;
#55 = CONICAL_SURFACE ( 'NONE', #74, 0.3750000000000001110, 1.308996938995753867 ) ;
#56 =( CONVERSION_BASED_UNIT ( 'INCH', #216 ) LENGTH_UNIT ( ) NAMED_UNIT ( #114 ) );
#57 = DIRECTION ( 'NONE',  ( -0.000000000000000000, 1.000000000000000000, -0.000000000000000000 ) ) ;
#58 = ADVANCED_FACE ( 'NONE', ( #51 ), #195, .T. ) ;
#59 = CARTESIAN_POINT ( 'NONE',  ( 4.194415287079685308E-17, -0.1000000000000000056, -0.3425000000000000266 ) ) ;
#60 = FILL_AREA_STYLE ('',( #193 ) ) ;
#61 = DIRECTION ( 'NONE',  ( 0.000000000000000000, 0.000000000000000000, 1.000000000000000000 ) ) ;
#62 = DIRECTION ( 'NONE',  ( 0.000000000000000000, 0.000000000000000000, 1.000000000000000000 ) ) ;
#63 = AXIS2_PLACEMENT_3D ( 'NONE', #252, #270, #117 ) ;
#64 = EDGE_CURVE ( 'NONE', #71, #206, #26, .T. ) ;
#65 = CARTESIAN_POINT ( 'NONE',  ( 0.000000000000000000, -1.574999999999999956, 0.000000000000000000 ) ) ;
#66 =( NAMED_UNIT ( * ) PLANE_ANGLE_UNIT ( ) SI_UNIT ( $, .RADIAN. ) );
#67 = DIRECTION ( 'NONE',  ( 0.000000000000000000, -0.000000000000000000, -1.000000000000000000 ) ) ;
#68 = EDGE_CURVE ( 'NONE', #206, #177, #369, .T. ) ;
#69 = FILL_AREA_STYLE ('',( #312 ) ) ;
#70 = DIRECTION ( 'NONE',  ( 0.000000000000000000, 0.000000000000000000, 1.000000000000000000 ) ) ;
#71 = VERTEX_POINT ( 'NONE', #396 ) ;
#72 = ORIENTED_EDGE ( 'NONE', *, *, #395, .F. ) ;
#73 = VECTOR ( 'NONE', #276, 39.37007874015748143 ) ;
#74 = AXIS2_PLACEMENT_3D ( 'NONE', #133, #200, #70 ) ;
#75 = CARTESIAN_POINT ( 'NONE',  ( 0.000000000000000000, -1.574999999999999956, 0.000000000000000000 ) ) ;
#76 = ORIENTED_EDGE ( 'NONE', *, *, #400, .T. ) ;
#77 = CARTESIAN_POINT ( 'NONE',  ( 0.000000000000000000, -1.574999999999999956, 0.000000000000000000 ) ) ;
#78 = ORIENTED_EDGE ( 'NONE', *, *, #190, .T. ) ;
#79 = EDGE_CURVE ( 'NONE', #206, #169, #234, .T. ) ;
#80 = LINE ( 'NONE', #107, #198 ) ;
#81 = EDGE_LOOP ( 'NONE', ( #314, #232, #356, #299 ) ) ;
#82 = AXIS2_PLACEMENT_3D ( 'NONE', #365, #274, #251 ) ;
#83 = DIRECTION ( 'NONE',  ( -0.000000000000000000, 1.000000000000000000, 0.000000000000000000 ) ) ;
#84 = ORIENTED_EDGE ( 'NONE', *, *, #79, .F. ) ;
#85 = AXIS2_PLACEMENT_3D ( 'NONE', #290, #135, #4 ) ;
#86 = PRESENTATION_STYLE_ASSIGNMENT (( #19 ) ) ;
#87 = EDGE_CURVE ( 'NONE', #177, #322, #186, .T. ) ;
#88 = STYLED_ITEM ( 'NONE', ( #199 ), #119 ) ;
#89 = UNCERTAINTY_MEASURE_WITH_UNIT (LENGTH_MEASURE( 1.000000000000000082E-05 ), #256, 'distance_accuracy_value', 'NONE');
#90 = AXIS2_PLACEMENT_3D ( 'NONE', #333, #154, #67 ) ;
#91 = CARTESIAN_POINT ( 'NONE',  ( 0.000000000000000000, 0.000000000000000000, 0.5899999999999999689 ) ) ;
#92 = DIRECTION ( 'NONE',  ( 0.000000000000000000, 0.000000000000000000, 1.000000000000000000 ) ) ;
#93 = APPLICATION_PROTOCOL_DEFINITION ( 'draft international standard', 'automotive_design', 1998, #327 ) ;
#94 = CYLINDRICAL_SURFACE ( 'NONE', #383, 0.3750000000000001665 ) ;
#95 = CARTESIAN_POINT ( 'NONE',  ( 3.796405077356796397E-17, 0.000000000000000000, -0.3100000000000001088 ) ) ;
#96 = ADVANCED_FACE ( 'NONE', ( #397 ), #94, .T. ) ;
#97 = VECTOR ( 'NONE', #174, 39.37007874015748143 ) ;
#98 = CARTESIAN_POINT ( 'NONE',  ( 0.3425000000000000266, 0.000000000000000000, 0.000000000000000000 ) ) ;
#99 = ADVANCED_FACE ( 'NONE', ( #334 ), #273, .T. ) ;
#100 = ORIENTED_EDGE ( 'NONE', *, *, #374, .T. ) ;
#101 = AXIS2_PLACEMENT_3D ( 'NONE', #392, #221, #25 ) ;
#102 = MANIFOLD_SOLID_BREP ( 'Revolve1', #31 ) ;
#103 = AXIS2_PLACEMENT_3D ( 'NONE', #145, #267, #224 ) ;
#104 = ORIENTED_EDGE ( 'NONE', *, *, #64, .T. ) ;
#105 = ORIENTED_EDGE ( 'NONE', *, *, #20, .F. ) ;
#106 = PRODUCT_DEFINITION ( 'UNKNOWN', '', #402, #3 ) ;
#107 = CARTESIAN_POINT ( 'NONE',  ( 4.194415287079685308E-17, 0.000000000000000000, -0.3425000000000000266 ) ) ;
#108 = ORIENTED_EDGE ( 'NONE', *, *, #68, .F. ) ;
#109 = CARTESIAN_POINT ( 'NONE',  ( 0.000000000000000000, -0.1000000000000000056, 0.000000000000000000 ) ) ;
#110 = ORIENTED_EDGE ( 'NONE', *, *, #136, .F. ) ;
#111 = ADVANCED_FACE ( 'NONE', ( #248, #359 ), #218, .F. ) ;
#112 = FACE_OUTER_BOUND ( 'NONE', #371, .T. ) ;
#113 = ORIENTED_EDGE ( 'NONE', *, *, #298, .T. ) ;
#114 = DIMENSIONAL_EXPONENTS ( 1.000000000000000000, 0.000000000000000000, 0.000000000000000000, 0.000000000000000000, 0.000000000000000000, 0.000000000000000000, 0.000000000000000000 ) ;
#115 = CARTESIAN_POINT ( 'NONE',  ( 0.000000000000000000, 0.000000000000000000, 0.000000000000000000 ) ) ;
#116 = EDGE_LOOP ( 'NONE', ( #2, #147 ) ) ;
#117 = DIRECTION ( 'NONE',  ( 0.000000000000000000, 0.000000000000000000, 1.000000000000000000 ) ) ;
#118 = ORIENTED_EDGE ( 'NONE', *, *, #395, .T. ) ;
#119 = ADVANCED_BREP_SHAPE_REPRESENTATION ( '715110', ( #102, #162 ), #258 ) ;
#120 =( LENGTH_UNIT ( ) NAMED_UNIT ( * ) SI_UNIT ( $, .METRE. ) );
#121 = PLANE ( 'NONE',  #134 ) ;
#122 = SURFACE_SIDE_STYLE ('',( #153 ) ) ;
#123 = AXIS2_PLACEMENT_3D ( 'NONE', #293, #6, #391 ) ;
#124 =( LENGTH_UNIT ( ) NAMED_UNIT ( * ) SI_UNIT ( $, .METRE. ) );
#125 = EDGE_CURVE ( 'NONE', #376, #303, #363, .T. ) ;
#126 = DIRECTION ( 'NONE',  ( -0.000000000000000000, 1.000000000000000000, -0.000000000000000000 ) ) ;
#127 = DIRECTION ( 'NONE',  ( -0.000000000000000000, 1.000000000000000000, -0.000000000000000000 ) ) ;
#128 = DIRECTION ( 'NONE',  ( -0.000000000000000000, 1.000000000000000000, -0.000000000000000000 ) ) ;
#129 = AXIS2_PLACEMENT_3D ( 'NONE', #377, #12, #243 ) ;
#130 =( GEOMETRIC_REPRESENTATION_CONTEXT ( 3 ) GLOBAL_UNCERTAINTY_ASSIGNED_CONTEXT ( ( #89 ) ) GLOBAL_UNIT_ASSIGNED_CONTEXT ( ( #256, #66, #286 ) ) REPRESENTATION_CONTEXT ( 'NONE', 'WORKASPACE' ) );
#131 = ADVANCED_FACE ( 'NONE', ( #313 ), #55, .T. ) ;
#132 = APPLICATION_PROTOCOL_DEFINITION ( 'draft international standard', 'automotive_design', 1998, #344 ) ;
#133 = CARTESIAN_POINT ( 'NONE',  ( 0.000000000000000000, -0.1776090763726898281, 0.000000000000000000 ) ) ;
#134 = AXIS2_PLACEMENT_3D ( 'NONE', #332, #83, #366 ) ;
#135 = DIRECTION ( 'NONE',  ( -0.000000000000000000, 1.000000000000000000, -0.000000000000000000 ) ) ;
#136 = EDGE_CURVE ( 'NONE', #322, #177, #10, .T. ) ;
#137 = FACE_BOUND ( 'NONE', #351, .T. ) ;
#138 = EDGE_LOOP ( 'NONE', ( #324, #139, #113, #329 ) ) ;
#139 = ORIENTED_EDGE ( 'NONE', *, *, #125, .F. ) ;
#140 = LINE ( 'NONE', #387, #242 ) ;
#141 = EDGE_CURVE ( 'NONE', #71, #246, #310, .T. ) ;
#142 = MECHANICAL_DESIGN_GEOMETRIC_PRESENTATION_REPRESENTATION (  '', ( #255 ), #305 ) ;
#143 = ORIENTED_EDGE ( 'NONE', *, *, #64, .F. ) ;
#144 = CARTESIAN_POINT ( 'NONE',  ( 0.000000000000000000, -0.1000000000000000056, 0.3425000000000000266 ) ) ;
#145 = CARTESIAN_POINT ( 'NONE',  ( 0.000000000000000000, 0.000000000000000000, 0.000000000000000000 ) ) ;
#146 = CYLINDRICAL_SURFACE ( 'NONE', #380, 0.3750000000000001665 ) ;
#147 = ORIENTED_EDGE ( 'NONE', *, *, #171, .F. ) ;
#148 = LINE ( 'NONE', #213, #194 ) ;
#149 = AXIS2_PLACEMENT_3D ( 'NONE', #202, #35, #230 ) ;
#150 = COLOUR_RGB ( '',0.8980392156862745390, 0.9176470588235293713, 0.9294117647058823817 ) ;
#151 = EDGE_CURVE ( 'NONE', #259, #388, #29, .T. ) ;
#152 = CARTESIAN_POINT ( 'NONE',  ( 7.225416114969383947E-17, 0.000000000000000000, -0.5899999999999999689 ) ) ;
#153 = SURFACE_STYLE_FILL_AREA ( #60 ) ;
#154 = DIRECTION ( 'NONE',  ( 0.000000000000000000, -1.000000000000000000, 0.000000000000000000 ) ) ;
#155 = DIRECTION ( 'NONE',  ( -0.000000000000000000, 1.000000000000000000, -0.000000000000000000 ) ) ;
#156 = MECHANICAL_DESIGN_GEOMETRIC_PRESENTATION_REPRESENTATION (  '', ( #88 ), #130 ) ;
#157 =( NAMED_UNIT ( * ) SI_UNIT ( $, .STERADIAN. ) SOLID_ANGLE_UNIT ( ) );
#158 = CARTESIAN_POINT ( 'NONE',  ( 0.000000000000000000, -0.1776090763726898281, 0.3750000000000001110 ) ) ;
#159 =( NAMED_UNIT ( * ) SI_UNIT ( $, .STERADIAN. ) SOLID_ANGLE_UNIT ( ) );
#160 = CARTESIAN_POINT ( 'NONE',  ( 5.908920805885980315E-17, -0.1776090763726898281, -0.3750000000000001110 ) ) ;
#161 = CIRCLE ( 'NONE', #354, 0.3425000000000000266 ) ;
#162 = AXIS2_PLACEMENT_3D ( 'NONE', #370, #279, #284 ) ;
#163 = AXIS2_PLACEMENT_3D ( 'NONE', #222, #188, #308 ) ;
#164 = ORIENTED_EDGE ( 'NONE', *, *, #241, .T. ) ;
#165 = SURFACE_SIDE_STYLE ('',( #340 ) ) ;
#166 = DIRECTION ( 'NONE',  ( -0.000000000000000000, 1.000000000000000000, -0.000000000000000000 ) ) ;
#167 = ADVANCED_FACE ( 'NONE', ( #137, #260 ), #28, .F. ) ;
#168 = ORIENTED_EDGE ( 'NONE', *, *, #79, .T. ) ;
#169 = VERTEX_POINT ( 'NONE', #160 ) ;
#170 = ORIENTED_EDGE ( 'NONE', *, *, #46, .T. ) ;
#171 = EDGE_CURVE ( 'NONE', #246, #71, #360, .T. ) ;
#172 = DIRECTION ( 'NONE',  ( -0.000000000000000000, 1.000000000000000000, -0.000000000000000000 ) ) ;
#173 = EDGE_LOOP ( 'NONE', ( #301, #118, #32, #326 ) ) ;
#174 = DIRECTION ( 'NONE',  ( -0.000000000000000000, 1.000000000000000000, -0.000000000000000000 ) ) ;
#175 = EDGE_LOOP ( 'NONE', ( #170, #285 ) ) ;
#176 = DIRECTION ( 'NONE',  ( 0.000000000000000000, 0.000000000000000000, 1.000000000000000000 ) ) ;
#177 = VERTEX_POINT ( 'NONE', #208 ) ;
#178 = DIMENSIONAL_EXPONENTS ( 1.000000000000000000, 0.000000000000000000, 0.000000000000000000, 0.000000000000000000, 0.000000000000000000, 0.000000000000000000, 0.000000000000000000 ) ;
#179 = DIRECTION ( 'NONE',  ( -0.000000000000000000, 1.000000000000000000, -0.000000000000000000 ) ) ;
#180 = EDGE_LOOP ( 'NONE', ( #283, #209 ) ) ;
#181 = EDGE_CURVE ( 'NONE', #388, #295, #80, .T. ) ;
#182 = CARTESIAN_POINT ( 'NONE',  ( 0.000000000000000000, -0.1000000000000000056, 0.000000000000000000 ) ) ;
#183 = AXIS2_PLACEMENT_3D ( 'NONE', #11, #358, #13 ) ;
#184 = CIRCLE ( 'NONE', #63, 0.3750000000000001110 ) ;
#185 = DIRECTION ( 'NONE',  ( 0.000000000000000000, 0.000000000000000000, 1.000000000000000000 ) ) ;
#186 = CIRCLE ( 'NONE', #163, 0.5899999999999999689 ) ;
#187 = FACE_OUTER_BOUND ( 'NONE', #116, .T. ) ;
#188 = DIRECTION ( 'NONE',  ( -0.000000000000000000, 1.000000000000000000, -0.000000000000000000 ) ) ;
#189 =( NAMED_UNIT ( * ) PLANE_ANGLE_UNIT ( ) SI_UNIT ( $, .RADIAN. ) );
#190 = EDGE_CURVE ( 'NONE', #246, #169, #347, .T. ) ;
#191 = CARTESIAN_POINT ( 'NONE',  ( 0.000000000000000000, 0.000000000000000000, 0.000000000000000000 ) ) ;
#192 = DIRECTION ( 'NONE',  ( -0.000000000000000000, 1.000000000000000000, -0.000000000000000000 ) ) ;
#193 = FILL_AREA_STYLE_COLOUR ( '', #403 ) ;
#194 = VECTOR ( 'NONE', #179, 39.37007874015748143 ) ;
#195 = CONICAL_SURFACE ( 'NONE', #401, 0.3750000000000001110, 1.308996938995753867 ) ;
#196 = DIRECTION ( 'NONE',  ( 0.000000000000000000, 0.000000000000000000, 1.000000000000000000 ) ) ;
#197 = PRODUCT_CONTEXT ( 'NONE', #327, 'mechanical' ) ;
#198 = VECTOR ( 'NONE', #235, 39.37007874015748143 ) ;
#199 = PRESENTATION_STYLE_ASSIGNMENT (( #375 ) ) ;
#200 = DIRECTION ( 'NONE',  ( -0.000000000000000000, 1.000000000000000000, -0.000000000000000000 ) ) ;
#201 = EDGE_CURVE ( 'NONE', #212, #295, #353, .T. ) ;
#202 = CARTESIAN_POINT ( 'NONE',  ( 0.000000000000000000, -1.574999999999999956, 0.000000000000000000 ) ) ;
#203 = VERTEX_POINT ( 'NONE', #210 ) ;
#204 = ORIENTED_EDGE ( 'NONE', *, *, #171, .T. ) ;
#205 = CIRCLE ( 'NONE', #382, 0.3099999999999999978 ) ;
#206 = VERTEX_POINT ( 'NONE', #294 ) ;
#207 = ADVANCED_FACE ( 'NONE', ( #45 ), #7, .F. ) ;
#208 = CARTESIAN_POINT ( 'NONE',  ( 0.000000000000000000, -0.1199999999999999956, 0.5899999999999999689 ) ) ;
#209 = ORIENTED_EDGE ( 'NONE', *, *, #400, .F. ) ;
#210 = CARTESIAN_POINT ( 'NONE',  ( 7.225416114969383947E-17, 0.000000000000000000, -0.5899999999999999689 ) ) ;
#211 = ORIENTED_EDGE ( 'NONE', *, *, #141, .T. ) ;
#212 = VERTEX_POINT ( 'NONE', #355 ) ;
#213 = CARTESIAN_POINT ( 'NONE',  ( 0.000000000000000000, 0.000000000000000000, 0.3100000000000001088 ) ) ;
#214 =( CONVERSION_BASED_UNIT ( 'INCH', #393 ) LENGTH_UNIT ( ) NAMED_UNIT ( #178 ) );
#215 = UNCERTAINTY_MEASURE_WITH_UNIT (LENGTH_MEASURE( 1.000000000000000082E-05 ), #214, 'distance_accuracy_value', 'NONE');
#216 = LENGTH_MEASURE_WITH_UNIT ( LENGTH_MEASURE( 0.02539999999999999897 ), #120 );
#217 = VECTOR ( 'NONE', #390, 39.37007874015748143 ) ;
#218 = PLANE ( 'NONE',  #90 ) ;
#219 = PRESENTATION_LAYER_ASSIGNMENT (  '', '', ( #255 ) ) ;
#220 = EDGE_CURVE ( 'NONE', #169, #322, #140, .T. ) ;
#221 = DIRECTION ( 'NONE',  ( -0.000000000000000000, 1.000000000000000000, -0.000000000000000000 ) ) ;
#222 = CARTESIAN_POINT ( 'NONE',  ( 0.000000000000000000, -0.1199999999999999956, 0.000000000000000000 ) ) ;
#223 = PRODUCT_DEFINITION_SHAPE ( 'NONE', 'NONE',  #106 ) ;
#224 = DIRECTION ( 'NONE',  ( 0.000000000000000000, 0.000000000000000000, 1.000000000000000000 ) ) ;
#225 = CIRCLE ( 'NONE', #82, 0.5899999999999999689 ) ;
#226 = UNCERTAINTY_MEASURE_WITH_UNIT (LENGTH_MEASURE( 1.000000000000000082E-05 ), #56, 'distance_accuracy_value', 'NONE');
#227 = EDGE_CURVE ( 'NONE', #259, #212, #264, .T. ) ;
#228 = DIRECTION ( 'NONE',  ( 0.000000000000000000, -1.000000000000000000, 0.000000000000000000 ) ) ;
#229 = SHAPE_DEFINITION_REPRESENTATION ( #223, #119 ) ;
#230 = DIRECTION ( 'NONE',  ( 0.000000000000000000, 0.000000000000000000, 1.000000000000000000 ) ) ;
#231 = DIRECTION ( 'NONE',  ( 0.000000000000000000, 0.000000000000000000, 1.000000000000000000 ) ) ;
#232 = ORIENTED_EDGE ( 'NONE', *, *, #181, .T. ) ;
#233 = VECTOR ( 'NONE', #192, 39.37007874015748143 ) ;
#234 = CIRCLE ( 'NONE', #53, 0.3750000000000001110 ) ;
#235 = DIRECTION ( 'NONE',  ( -0.000000000000000000, 1.000000000000000000, -0.000000000000000000 ) ) ;
#236 = FACE_OUTER_BOUND ( 'NONE', #138, .T. ) ;
#237 = DIRECTION ( 'NONE',  ( 0.000000000000000000, 0.000000000000000000, 1.000000000000000000 ) ) ;
#238 = ORIENTED_EDGE ( 'NONE', *, *, #257, .F. ) ;
#239 = ORIENTED_EDGE ( 'NONE', *, *, #220, .F. ) ;
#240 = PRODUCT ( '715110', '715110', '', ( #197 ) ) ;
#241 = EDGE_CURVE ( 'NONE', #388, #259, #161, .T. ) ;
#242 = VECTOR ( 'NONE', #289, 39.37007874015748143 ) ;
#243 = DIRECTION ( 'NONE',  ( 0.000000000000000000, 0.000000000000000000, 1.000000000000000000 ) ) ;
#244 = EDGE_LOOP ( 'NONE', ( #386, #348 ) ) ;
#245 = CARTESIAN_POINT ( 'NONE',  ( 0.000000000000000000, 0.000000000000000000, 0.000000000000000000 ) ) ;
#246 = VERTEX_POINT ( 'NONE', #43 ) ;
#247 = DIRECTION ( 'NONE',  ( 0.000000000000000000, 0.000000000000000000, 1.000000000000000000 ) ) ;
#248 = FACE_BOUND ( 'NONE', #180, .T. ) ;
#249 = CARTESIAN_POINT ( 'NONE',  ( 0.000000000000000000, 0.000000000000000000, 0.5899999999999999689 ) ) ;
#250 = CIRCLE ( 'NONE', #101, 0.3100000000000001643 ) ;
#251 = DIRECTION ( 'NONE',  ( 0.000000000000000000, 0.000000000000000000, 1.000000000000000000 ) ) ;
#252 = CARTESIAN_POINT ( 'NONE',  ( 0.000000000000000000, -0.1776090763726898281, 0.000000000000000000 ) ) ;
#253 = CARTESIAN_POINT ( 'NONE',  ( 0.000000000000000000, -0.1776090763726898281, 0.000000000000000000 ) ) ;
#254 = CARTESIAN_POINT ( 'NONE',  ( 3.796405077356797013E-17, -0.1000000000000000056, -0.3100000000000001643 ) ) ;
#255 = STYLED_ITEM ( 'NONE', ( #86 ), #102 ) ;
#256 =( CONVERSION_BASED_UNIT ( 'INCH', #1 ) LENGTH_UNIT ( ) NAMED_UNIT ( #22 ) );
#257 = EDGE_CURVE ( 'NONE', #303, #376, #205, .T. ) ;
#258 =( GEOMETRIC_REPRESENTATION_CONTEXT ( 3 ) GLOBAL_UNCERTAINTY_ASSIGNED_CONTEXT ( ( #226 ) ) GLOBAL_UNIT_ASSIGNED_CONTEXT ( ( #56, #189, #157 ) ) REPRESENTATION_CONTEXT ( 'NONE', 'WORKASPACE' ) );
#259 = VERTEX_POINT ( 'NONE', #144 ) ;
#260 = FACE_OUTER_BOUND ( 'NONE', #175, .T. ) ;
#261 = EDGE_LOOP ( 'NONE', ( #168, #346, #269, #108 ) ) ;
#262 = PRODUCT_RELATED_PRODUCT_CATEGORY ( 'part', '', ( #240 ) ) ;
#263 = ORIENTED_EDGE ( 'NONE', *, *, #331, .T. ) ;
#264 = LINE ( 'NONE', #297, #97 ) ;
#265 = AXIS2_PLACEMENT_3D ( 'NONE', #278, #57, #62 ) ;
#266 = ORIENTED_EDGE ( 'NONE', *, *, #68, .T. ) ;
#267 = DIRECTION ( 'NONE',  ( -0.000000000000000000, 1.000000000000000000, -0.000000000000000000 ) ) ;
#268 = DIRECTION ( 'NONE',  ( -0.000000000000000000, 1.000000000000000000, -0.000000000000000000 ) ) ;
#269 = ORIENTED_EDGE ( 'NONE', *, *, #87, .F. ) ;
#270 = DIRECTION ( 'NONE',  ( -0.000000000000000000, 1.000000000000000000, -0.000000000000000000 ) ) ;
#271 = EDGE_LOOP ( 'NONE', ( #72, #378, #287, #105 ) ) ;
#272 = CARTESIAN_POINT ( 'NONE',  ( 3.796405077356795780E-17, -1.574999999999999956, -0.3099999999999999978 ) ) ;
#273 = CYLINDRICAL_SURFACE ( 'NONE', #265, 0.5899999999999999689 ) ;
#274 = DIRECTION ( 'NONE',  ( -0.000000000000000000, 1.000000000000000000, -0.000000000000000000 ) ) ;
#275 = CARTESIAN_POINT ( 'NONE',  ( 7.225416114969383947E-17, -0.1199999999999999956, -0.5899999999999999689 ) ) ;
#276 = DIRECTION ( 'NONE',  ( 0.000000000000000000, 0.2588190451025143002, 0.9659258262890699775 ) ) ;
#277 = LINE ( 'NONE', #95, #217 ) ;
#278 = CARTESIAN_POINT ( 'NONE',  ( 0.000000000000000000, 0.000000000000000000, 0.000000000000000000 ) ) ;
#279 = DIRECTION ( 'NONE',  ( 0.000000000000000000, 0.000000000000000000, 1.000000000000000000 ) ) ;
#280 = CARTESIAN_POINT ( 'NONE',  ( 0.000000000000000000, -0.1776090763726898281, 0.000000000000000000 ) ) ;
#281 = AXIS2_PLACEMENT_3D ( 'NONE', #316, #166, #196 ) ;
#282 = ADVANCED_FACE ( 'NONE', ( #112 ), #146, .T. ) ;
#283 = ORIENTED_EDGE ( 'NONE', *, *, #389, .F. ) ;
#284 = DIRECTION ( 'NONE',  ( 1.000000000000000000, 0.000000000000000000, 0.000000000000000000 ) ) ;
#285 = ORIENTED_EDGE ( 'NONE', *, *, #20, .T. ) ;
#286 =( NAMED_UNIT ( * ) SI_UNIT ( $, .STERADIAN. ) SOLID_ANGLE_UNIT ( ) );
#287 = ORIENTED_EDGE ( 'NONE', *, *, #311, .T. ) ;
#288 = AXIS2_PLACEMENT_3D ( 'NONE', #182, #304, #61 ) ;
#289 = DIRECTION ( 'NONE',  ( 1.182917971378671814E-16, 0.2588190451025143002, -0.9659258262890699775 ) ) ;
#290 = CARTESIAN_POINT ( 'NONE',  ( 0.000000000000000000, -0.1000000000000000056, 0.000000000000000000 ) ) ;
#291 = EDGE_LOOP ( 'NONE', ( #42, #204, #104, #320 ) ) ;
#292 = ADVANCED_FACE ( 'NONE', ( #394 ), #302, .F. ) ;
#293 = CARTESIAN_POINT ( 'NONE',  ( 0.000000000000000000, 0.000000000000000000, 0.000000000000000000 ) ) ;
#294 = CARTESIAN_POINT ( 'NONE',  ( 0.000000000000000000, -0.1776090763726898281, 0.3750000000000001110 ) ) ;
#295 = VERTEX_POINT ( 'NONE', #335 ) ;
#296 = VECTOR ( 'NONE', #325, 39.37007874015748143 ) ;
#297 = CARTESIAN_POINT ( 'NONE',  ( 0.000000000000000000, 0.000000000000000000, 0.3425000000000000266 ) ) ;
#298 = EDGE_CURVE ( 'NONE', #376, #318, #148, .T. ) ;
#299 = ORIENTED_EDGE ( 'NONE', *, *, #227, .F. ) ;
#300 = CARTESIAN_POINT ( 'NONE',  ( 4.592425496802576684E-17, 0.000000000000000000, -0.3750000000000001665 ) ) ;
#301 = ORIENTED_EDGE ( 'NONE', *, *, #87, .T. ) ;
#302 = CYLINDRICAL_SURFACE ( 'NONE', #54, 0.3425000000000000266 ) ;
#303 = VERTEX_POINT ( 'NONE', #272 ) ;
#304 = DIRECTION ( 'NONE',  ( -0.000000000000000000, 1.000000000000000000, -0.000000000000000000 ) ) ;
#305 =( GEOMETRIC_REPRESENTATION_CONTEXT ( 3 ) GLOBAL_UNCERTAINTY_ASSIGNED_CONTEXT ( ( #215 ) ) GLOBAL_UNIT_ASSIGNED_CONTEXT ( ( #214, #338, #159 ) ) REPRESENTATION_CONTEXT ( 'NONE', 'WORKASPACE' ) );
#306 = DIRECTION ( 'NONE',  ( 0.000000000000000000, 0.000000000000000000, 1.000000000000000000 ) ) ;
#307 = ADVANCED_FACE ( 'NONE', ( #187, #15 ), #121, .F. ) ;
#308 = DIRECTION ( 'NONE',  ( 0.000000000000000000, 0.000000000000000000, 1.000000000000000000 ) ) ;
#309 = DIRECTION ( 'NONE',  ( -0.000000000000000000, 1.000000000000000000, -0.000000000000000000 ) ) ;
#310 = CIRCLE ( 'NONE', #149, 0.3750000000000002220 ) ;
#311 = EDGE_CURVE ( 'NONE', #177, #343, #23, .T. ) ;
#312 = FILL_AREA_STYLE_COLOUR ( '', #150 ) ;
#313 = FACE_OUTER_BOUND ( 'NONE', #16, .T. ) ;
#314 = ORIENTED_EDGE ( 'NONE', *, *, #241, .F. ) ;
#315 = AXIS2_PLACEMENT_3D ( 'NONE', #65, #37, #231 ) ;
#316 = CARTESIAN_POINT ( 'NONE',  ( 0.000000000000000000, -0.1199999999999999956, 0.000000000000000000 ) ) ;
#317 = ORIENTED_EDGE ( 'NONE', *, *, #151, .F. ) ;
#318 = VERTEX_POINT ( 'NONE', #330 ) ;
#319 = AXIS2_PLACEMENT_3D ( 'NONE', #98, #228, #339 ) ;
#320 = ORIENTED_EDGE ( 'NONE', *, *, #374, .F. ) ;
#321 = ORIENTED_EDGE ( 'NONE', *, *, #227, .T. ) ;
#322 = VERTEX_POINT ( 'NONE', #275 ) ;
#323 = DIRECTION ( 'NONE',  ( -0.000000000000000000, 1.000000000000000000, -0.000000000000000000 ) ) ;
#324 = ORIENTED_EDGE ( 'NONE', *, *, #331, .F. ) ;
#325 = DIRECTION ( 'NONE',  ( -0.000000000000000000, 1.000000000000000000, -0.000000000000000000 ) ) ;
#326 = ORIENTED_EDGE ( 'NONE', *, *, #311, .F. ) ;
#327 = APPLICATION_CONTEXT ( 'automotive_design' ) ;
#328 = FACE_OUTER_BOUND ( 'NONE', #173, .T. ) ;
#329 = ORIENTED_EDGE ( 'NONE', *, *, #389, .T. ) ;
#330 = CARTESIAN_POINT ( 'NONE',  ( 0.000000000000000000, -0.1000000000000000056, 0.3100000000000001643 ) ) ;
#331 = EDGE_CURVE ( 'NONE', #303, #47, #277, .T. ) ;
#332 = CARTESIAN_POINT ( 'NONE',  ( 0.3750000000000002220, -1.574999999999999956, 0.000000000000000000 ) ) ;
#333 = CARTESIAN_POINT ( 'NONE',  ( 0.3100000000000001643, -0.1000000000000000056, 0.000000000000000000 ) ) ;
#334 = FACE_OUTER_BOUND ( 'NONE', #271, .T. ) ;
#335 = CARTESIAN_POINT ( 'NONE',  ( 4.194415287079685308E-17, 0.000000000000000000, -0.3425000000000000266 ) ) ;
#336 = CARTESIAN_POINT ( 'NONE',  ( 0.000000000000000000, 0.000000000000000000, 0.3750000000000001665 ) ) ;
#337 = CIRCLE ( 'NONE', #103, 0.5899999999999999689 ) ;
#338 =( NAMED_UNIT ( * ) PLANE_ANGLE_UNIT ( ) SI_UNIT ( $, .RADIAN. ) );
#339 = DIRECTION ( 'NONE',  ( 0.000000000000000000, -0.000000000000000000, -1.000000000000000000 ) ) ;
#340 = SURFACE_STYLE_FILL_AREA ( #69 ) ;
#341 = AXIS2_PLACEMENT_3D ( 'NONE', #75, #39, #379 ) ;
#342 = CIRCLE ( 'NONE', #183, 0.3425000000000000266 ) ;
#343 = VERTEX_POINT ( 'NONE', #249 ) ;
#344 = APPLICATION_CONTEXT ( 'automotive_design' ) ;
#345 = DIRECTION ( 'NONE',  ( 0.000000000000000000, 0.000000000000000000, 1.000000000000000000 ) ) ;
#346 = ORIENTED_EDGE ( 'NONE', *, *, #220, .T. ) ;
#347 = LINE ( 'NONE', #300, #296 ) ;
#348 = ORIENTED_EDGE ( 'NONE', *, *, #257, .T. ) ;
#349 = ADVANCED_FACE ( 'NONE', ( #328 ), #361, .T. ) ;
#350 = DIRECTION ( 'NONE',  ( 0.000000000000000000, 0.000000000000000000, 1.000000000000000000 ) ) ;
#351 = EDGE_LOOP ( 'NONE', ( #44, #34 ) ) ;
#352 = ORIENTED_EDGE ( 'NONE', *, *, #201, .T. ) ;
#353 = CIRCLE ( 'NONE', #52, 0.3425000000000000266 ) ;
#354 = AXIS2_PLACEMENT_3D ( 'NONE', #109, #385, #350 ) ;
#355 = CARTESIAN_POINT ( 'NONE',  ( 0.000000000000000000, 0.000000000000000000, 0.3425000000000000266 ) ) ;
#356 = ORIENTED_EDGE ( 'NONE', *, *, #14, .T. ) ;
#357 = DIRECTION ( 'NONE',  ( 0.000000000000000000, 0.000000000000000000, 1.000000000000000000 ) ) ;
#358 = DIRECTION ( 'NONE',  ( -0.000000000000000000, 1.000000000000000000, -0.000000000000000000 ) ) ;
#359 = FACE_OUTER_BOUND ( 'NONE', #5, .T. ) ;
#360 = CIRCLE ( 'NONE', #341, 0.3750000000000002220 ) ;
#361 = CYLINDRICAL_SURFACE ( 'NONE', #17, 0.5899999999999999689 ) ;
#362 = AXIS2_PLACEMENT_3D ( 'NONE', #191, #127, #21 ) ;
#363 = CIRCLE ( 'NONE', #315, 0.3099999999999999978 ) ;
#364 = CARTESIAN_POINT ( 'NONE',  ( 0.000000000000000000, 0.000000000000000000, 0.000000000000000000 ) ) ;
#365 = CARTESIAN_POINT ( 'NONE',  ( 0.000000000000000000, 0.000000000000000000, 0.000000000000000000 ) ) ;
#366 = DIRECTION ( 'NONE',  ( 0.000000000000000000, 0.000000000000000000, 1.000000000000000000 ) ) ;
#367 = DIRECTION ( 'NONE',  ( -0.000000000000000000, 1.000000000000000000, -0.000000000000000000 ) ) ;
#368 = PRESENTATION_LAYER_ASSIGNMENT (  '', '', ( #88 ) ) ;
#369 = LINE ( 'NONE', #158, #73 ) ;
#370 = CARTESIAN_POINT ( 'NONE',  ( 0.000000000000000000, 0.000000000000000000, 0.000000000000000000 ) ) ;
#371 = EDGE_LOOP ( 'NONE', ( #211, #78, #84, #143 ) ) ;
#372 =( LENGTH_UNIT ( ) NAMED_UNIT ( * ) SI_UNIT ( $, .METRE. ) );
#373 = ORIENTED_EDGE ( 'NONE', *, *, #151, .T. ) ;
#374 = EDGE_CURVE ( 'NONE', #169, #206, #184, .T. ) ;
#375 = SURFACE_STYLE_USAGE ( .BOTH. , #165 ) ;
#376 = VERTEX_POINT ( 'NONE', #398 ) ;
#377 = CARTESIAN_POINT ( 'NONE',  ( 0.000000000000000000, 0.000000000000000000, 0.000000000000000000 ) ) ;
#378 = ORIENTED_EDGE ( 'NONE', *, *, #136, .T. ) ;
#379 = DIRECTION ( 'NONE',  ( 0.000000000000000000, 0.000000000000000000, 1.000000000000000000 ) ) ;
#380 = AXIS2_PLACEMENT_3D ( 'NONE', #115, #268, #345 ) ;
#381 = EDGE_LOOP ( 'NONE', ( #238, #263, #76, #40 ) ) ;
#382 = AXIS2_PLACEMENT_3D ( 'NONE', #77, #323, #176 ) ;
#383 = AXIS2_PLACEMENT_3D ( 'NONE', #364, #155, #306 ) ;
#384 = CYLINDRICAL_SURFACE ( 'NONE', #123, 0.3100000000000001088 ) ;
#385 = DIRECTION ( 'NONE',  ( -0.000000000000000000, 1.000000000000000000, -0.000000000000000000 ) ) ;
#386 = ORIENTED_EDGE ( 'NONE', *, *, #125, .T. ) ;
#387 = CARTESIAN_POINT ( 'NONE',  ( 4.592425496802576068E-17, -0.1776090763726898281, -0.3750000000000001110 ) ) ;
#388 = VERTEX_POINT ( 'NONE', #59 ) ;
#389 = EDGE_CURVE ( 'NONE', #318, #47, #30, .T. ) ;
#390 = DIRECTION ( 'NONE',  ( -0.000000000000000000, 1.000000000000000000, -0.000000000000000000 ) ) ;
#391 = DIRECTION ( 'NONE',  ( 0.000000000000000000, 0.000000000000000000, 1.000000000000000000 ) ) ;
#392 = CARTESIAN_POINT ( 'NONE',  ( 0.000000000000000000, -0.1000000000000000056, 0.000000000000000000 ) ) ;
#393 = LENGTH_MEASURE_WITH_UNIT ( LENGTH_MEASURE( 0.02539999999999999897 ), #124 );
#394 = FACE_OUTER_BOUND ( 'NONE', #81, .T. ) ;
#395 = EDGE_CURVE ( 'NONE', #322, #203, #18, .T. ) ;
#396 = CARTESIAN_POINT ( 'NONE',  ( 0.000000000000000000, -1.574999999999999956, 0.3750000000000002220 ) ) ;
#397 = FACE_OUTER_BOUND ( 'NONE', #291, .T. ) ;
#398 = CARTESIAN_POINT ( 'NONE',  ( 0.000000000000000000, -1.574999999999999956, 0.3099999999999999978 ) ) ;
#399 = CYLINDRICAL_SURFACE ( 'NONE', #362, 0.3425000000000000266 ) ;
#400 = EDGE_CURVE ( 'NONE', #47, #318, #250, .T. ) ;
#401 = AXIS2_PLACEMENT_3D ( 'NONE', #280, #24, #92 ) ;
#402 = PRODUCT_DEFINITION_FORMATION_WITH_SPECIFIED_SOURCE ( 'ANY', '', #240, .NOT_KNOWN. ) ;
#403 = COLOUR_RGB ( '',0.8980392156862745390, 0.9176470588235293713, 0.9294117647058823817 ) ;
ENDSEC;
END-ISO-10303-21;
