ISO-10303-21;
HEADER;
FILE_DESCRIPTION (( 'STEP AP214' ),
    '1' );
FILE_NAME ('720000.STEP',
    '2024-01-07T15:54:27',
    ( '' ),
    ( '' ),
    'SwSTEP 2.0',
    'SolidWorks 2022',
    '' );
FILE_SCHEMA (( 'AUTOMOTIVE_DESIGN' ));
ENDSEC;

DATA;
#1 = DIRECTION ( 'NONE',  ( 0.000000000000000000, 0.000000000000000000, 1.000000000000000000 ) ) ;
#2 = VECTOR ( 'NONE', #193, 39.37007874015748143 ) ;
#3 = ORIENTED_EDGE ( 'NONE', *, *, #65, .T. ) ;
#4 = PRODUCT_RELATED_PRODUCT_CATEGORY ( 'part', '', ( #309 ) ) ;
#5 = ORIENTED_EDGE ( 'NONE', *, *, #65, .F. ) ;
#6 = MANIFOLD_SOLID_BREP ( 'Revolve1', #216 ) ;
#7 = VERTEX_POINT ( 'NONE', #13 ) ;
#8 = AXIS2_PLACEMENT_3D ( 'NONE', #15, #354, #384 ) ;
#9 = ORIENTED_EDGE ( 'NONE', *, *, #113, .T. ) ;
#10 = EDGE_LOOP ( 'NONE', ( #286, #310, #287, #288 ) ) ;
#11 = CYLINDRICAL_SURFACE ( 'NONE', #87, 0.3424999999999999711 ) ;
#12 = EDGE_CURVE ( 'NONE', #166, #240, #29, .T. ) ;
#13 = CARTESIAN_POINT ( 'NONE',  ( 1.500000000000000444, 4.592425496802575451E-17, -0.3750000000000000555 ) ) ;
#14 = FACE_OUTER_BOUND ( 'NONE', #252, .T. ) ;
#15 = CARTESIAN_POINT ( 'NONE',  ( 0.1000000000000000194, 0.000000000000000000, 0.000000000000000000 ) ) ;
#16 = ADVANCED_FACE ( 'NONE', ( #203 ), #84, .F. ) ;
#17 = CARTESIAN_POINT ( 'NONE',  ( 1.500000000000000444, 3.827021247335477078E-17, -0.3124999999999998890 ) ) ;
#18 = DIMENSIONAL_EXPONENTS ( 1.000000000000000000, 0.000000000000000000, 0.000000000000000000, 0.000000000000000000, 0.000000000000000000, 0.000000000000000000, 0.000000000000000000 ) ;
#19 = DIRECTION ( 'NONE',  ( -0.2588190451025147443, 0.000000000000000000, 0.9659258262890698665 ) ) ;
#20 = ORIENTED_EDGE ( 'NONE', *, *, #239, .F. ) ;
#21 = EDGE_CURVE ( 'NONE', #44, #307, #385, .T. ) ;
#22 = DIRECTION ( 'NONE',  ( -1.000000000000000000, -0.000000000000000000, -0.000000000000000000 ) ) ;
#23 = CARTESIAN_POINT ( 'NONE',  ( 0.000000000000000000, 7.225416114969383947E-17, -0.5899999999999999689 ) ) ;
#24 = CARTESIAN_POINT ( 'NONE',  ( 0.000000000000000000, 0.000000000000000000, 0.000000000000000000 ) ) ;
#25 = DIRECTION ( 'NONE',  ( 0.000000000000000000, 0.000000000000000000, 1.000000000000000000 ) ) ;
#26 = EDGE_LOOP ( 'NONE', ( #256, #69 ) ) ;
#27 = VECTOR ( 'NONE', #177, 39.37007874015748143 ) ;
#28 = LINE ( 'NONE', #368, #312 ) ;
#29 = CIRCLE ( 'NONE', #243, 0.5899999999999999689 ) ;
#30 = ADVANCED_FACE ( 'NONE', ( #118 ), #356, .T. ) ;
#31 = ORIENTED_EDGE ( 'NONE', *, *, #263, .F. ) ;
#32 = CARTESIAN_POINT ( 'NONE',  ( 0.1776090763726898836, 0.000000000000000000, 0.000000000000000000 ) ) ;
#33 = DIRECTION ( 'NONE',  ( 0.000000000000000000, 0.000000000000000000, 1.000000000000000000 ) ) ;
#34 = ORIENTED_EDGE ( 'NONE', *, *, #85, .T. ) ;
#35 = CIRCLE ( 'NONE', #66, 0.3124999999999998890 ) ;
#36 = EDGE_CURVE ( 'NONE', #240, #166, #147, .T. ) ;
#37 = DIRECTION ( 'NONE',  ( -1.000000000000000000, -0.000000000000000000, -0.000000000000000000 ) ) ;
#38 = CIRCLE ( 'NONE', #115, 0.3750000000000001110 ) ;
#39 = EDGE_LOOP ( 'NONE', ( #353, #283, #255, #190 ) ) ;
#40 = CIRCLE ( 'NONE', #143, 0.3424999999999999711 ) ;
#41 = CARTESIAN_POINT ( 'NONE',  ( 0.1776090763726898836, 0.000000000000000000, 0.000000000000000000 ) ) ;
#42 = VERTEX_POINT ( 'NONE', #237 ) ;
#43 = SURFACE_STYLE_FILL_AREA ( #352 ) ;
#44 = VERTEX_POINT ( 'NONE', #174 ) ;
#45 = AXIS2_PLACEMENT_3D ( 'NONE', #261, #182, #361 ) ;
#46 = DIRECTION ( 'NONE',  ( -1.000000000000000000, -0.000000000000000000, -0.000000000000000000 ) ) ;
#47 = CARTESIAN_POINT ( 'NONE',  ( 0.1000000000000000194, 0.000000000000000000, 0.000000000000000000 ) ) ;
#48 = DIRECTION ( 'NONE',  ( -1.000000000000000000, -0.000000000000000000, -0.000000000000000000 ) ) ;
#49 = CARTESIAN_POINT ( 'NONE',  ( 0.1000000000000000194, 3.827021247335476461E-17, -0.3124999999999997224 ) ) ;
#50 = CARTESIAN_POINT ( 'NONE',  ( 0.000000000000000000, 0.000000000000000000, 0.000000000000000000 ) ) ;
#51 = EDGE_CURVE ( 'NONE', #71, #290, #350, .T. ) ;
#52 = DIRECTION ( 'NONE',  ( 0.000000000000000000, 0.000000000000000000, 1.000000000000000000 ) ) ;
#53 = APPLICATION_PROTOCOL_DEFINITION ( 'draft international standard', 'automotive_design', 1998, #170 ) ;
#54 = CONICAL_SURFACE ( 'NONE', #278, 0.3750000000000001110, 1.308996938995753423 ) ;
#55 = UNCERTAINTY_MEASURE_WITH_UNIT (LENGTH_MEASURE( 1.000000000000000082E-05 ), #228, 'distance_accuracy_value', 'NONE');
#56 = DIRECTION ( 'NONE',  ( 0.000000000000000000, 0.000000000000000000, 1.000000000000000000 ) ) ;
#57 = AXIS2_PLACEMENT_3D ( 'NONE', #70, #285, #98 ) ;
#58 = ADVANCED_FACE ( 'NONE', ( #116 ), #54, .T. ) ;
#59 =( LENGTH_UNIT ( ) NAMED_UNIT ( * ) SI_UNIT ( $, .METRE. ) );
#60 =( GEOMETRIC_REPRESENTATION_CONTEXT ( 3 ) GLOBAL_UNCERTAINTY_ASSIGNED_CONTEXT ( ( #55 ) ) GLOBAL_UNIT_ASSIGNED_CONTEXT ( ( #228, #231, #63 ) ) REPRESENTATION_CONTEXT ( 'NONE', 'WORKASPACE' ) );
#61 = CARTESIAN_POINT ( 'NONE',  ( 0.1000000000000000194, 0.000000000000000000, 0.3424999999999999711 ) ) ;
#62 = PRODUCT_CONTEXT ( 'NONE', #148, 'mechanical' ) ;
#63 =( NAMED_UNIT ( * ) SI_UNIT ( $, .STERADIAN. ) SOLID_ANGLE_UNIT ( ) );
#64 = LINE ( 'NONE', #150, #27 ) ;
#65 = EDGE_CURVE ( 'NONE', #336, #178, #328, .T. ) ;
#66 = AXIS2_PLACEMENT_3D ( 'NONE', #320, #81, #1 ) ;
#67 = CARTESIAN_POINT ( 'NONE',  ( 0.1000000000000000194, 0.000000000000000000, 0.000000000000000000 ) ) ;
#68 = DIRECTION ( 'NONE',  ( -1.000000000000000000, -0.000000000000000000, -0.000000000000000000 ) ) ;
#69 = ORIENTED_EDGE ( 'NONE', *, *, #151, .T. ) ;
#70 = CARTESIAN_POINT ( 'NONE',  ( 0.1000000000000000194, 0.3124999999999997224, 0.000000000000000000 ) ) ;
#71 = VERTEX_POINT ( 'NONE', #61 ) ;
#72 = DIRECTION ( 'NONE',  ( 0.000000000000000000, 0.000000000000000000, 1.000000000000000000 ) ) ;
#73 = FACE_OUTER_BOUND ( 'NONE', #120, .T. ) ;
#74 = ORIENTED_EDGE ( 'NONE', *, *, #107, .F. ) ;
#75 = DIRECTION ( 'NONE',  ( -1.000000000000000000, -0.000000000000000000, -0.000000000000000000 ) ) ;
#76 = PRESENTATION_LAYER_ASSIGNMENT (  '', '', ( #321 ) ) ;
#77 = ORIENTED_EDGE ( 'NONE', *, *, #36, .T. ) ;
#78 = ORIENTED_EDGE ( 'NONE', *, *, #277, .F. ) ;
#79 = EDGE_CURVE ( 'NONE', #168, #166, #82, .T. ) ;
#80 = VERTEX_POINT ( 'NONE', #49 ) ;
#81 = DIRECTION ( 'NONE',  ( -1.000000000000000000, -0.000000000000000000, -0.000000000000000000 ) ) ;
#82 = LINE ( 'NONE', #383, #206 ) ;
#83 = CARTESIAN_POINT ( 'NONE',  ( 0.000000000000000000, 0.000000000000000000, 0.3424999999999999711 ) ) ;
#84 = CYLINDRICAL_SURFACE ( 'NONE', #45, 0.3424999999999999711 ) ;
#85 = EDGE_CURVE ( 'NONE', #7, #110, #284, .T. ) ;
#86 = FACE_BOUND ( 'NONE', #396, .T. ) ;
#87 = AXIS2_PLACEMENT_3D ( 'NONE', #50, #189, #33 ) ;
#88 = ADVANCED_FACE ( 'NONE', ( #292 ), #199, .T. ) ;
#89 = APPLICATION_PROTOCOL_DEFINITION ( 'draft international standard', 'automotive_design', 1998, #148 ) ;
#90 = DIRECTION ( 'NONE',  ( 0.000000000000000000, 0.000000000000000000, 1.000000000000000000 ) ) ;
#91 = LINE ( 'NONE', #400, #222 ) ;
#92 = PRESENTATION_LAYER_ASSIGNMENT (  '', '', ( #339 ) ) ;
#93 = DIRECTION ( 'NONE',  ( 0.000000000000000000, 0.000000000000000000, 1.000000000000000000 ) ) ;
#94 = CARTESIAN_POINT ( 'NONE',  ( 0.000000000000000000, 0.000000000000000000, 0.000000000000000000 ) ) ;
#95 = EDGE_CURVE ( 'NONE', #178, #336, #131, .T. ) ;
#96 = DIRECTION ( 'NONE',  ( 1.000000000000000000, 0.000000000000000000, 0.000000000000000000 ) ) ;
#97 = AXIS2_PLACEMENT_3D ( 'NONE', #394, #386, #326 ) ;
#98 = DIRECTION ( 'NONE',  ( 0.000000000000000000, 0.000000000000000000, -1.000000000000000000 ) ) ;
#99 = PRODUCT_DEFINITION_SHAPE ( 'NONE', 'NONE',  #192 ) ;
#100 = ORIENTED_EDGE ( 'NONE', *, *, #85, .F. ) ;
#101 = DIRECTION ( 'NONE',  ( 0.000000000000000000, 0.000000000000000000, 1.000000000000000000 ) ) ;
#102 = ORIENTED_EDGE ( 'NONE', *, *, #79, .F. ) ;
#103 = ORIENTED_EDGE ( 'NONE', *, *, #113, .F. ) ;
#104 = DIRECTION ( 'NONE',  ( -1.000000000000000000, -0.000000000000000000, -0.000000000000000000 ) ) ;
#105 = COLOUR_RGB ( '',0.6470588235294117974, 0.6196078431372549211, 0.5882352941176470784 ) ;
#106 = CARTESIAN_POINT ( 'NONE',  ( 0.1199999999999999817, 0.000000000000000000, 0.000000000000000000 ) ) ;
#107 = EDGE_CURVE ( 'NONE', #71, #307, #211, .T. ) ;
#108 = SURFACE_STYLE_USAGE ( .BOTH. , #379 ) ;
#109 = DIRECTION ( 'NONE',  ( -1.000000000000000000, -0.000000000000000000, -0.000000000000000000 ) ) ;
#110 = VERTEX_POINT ( 'NONE', #244 ) ;
#111 = CARTESIAN_POINT ( 'NONE',  ( 0.000000000000000000, 0.000000000000000000, 0.5899999999999999689 ) ) ;
#112 = AXIS2_PLACEMENT_3D ( 'NONE', #296, #327, #204 ) ;
#113 = EDGE_CURVE ( 'NONE', #166, #178, #337, .T. ) ;
#114 = DIRECTION ( 'NONE',  ( 0.000000000000000000, 0.000000000000000000, 1.000000000000000000 ) ) ;
#115 = AXIS2_PLACEMENT_3D ( 'NONE', #32, #75, #72 ) ;
#116 = FACE_OUTER_BOUND ( 'NONE', #219, .T. ) ;
#117 = CARTESIAN_POINT ( 'NONE',  ( 1.500000000000000444, 0.000000000000000000, 0.000000000000000000 ) ) ;
#118 = FACE_OUTER_BOUND ( 'NONE', #345, .T. ) ;
#119 = DIRECTION ( 'NONE',  ( 0.000000000000000000, 0.000000000000000000, 1.000000000000000000 ) ) ;
#120 = EDGE_LOOP ( 'NONE', ( #301, #34, #375, #253 ) ) ;
#121 = CARTESIAN_POINT ( 'NONE',  ( 0.000000000000000000, 0.000000000000000000, 0.000000000000000000 ) ) ;
#122 = CARTESIAN_POINT ( 'NONE',  ( 0.1199999999999999817, 0.000000000000000000, 0.5899999999999999689 ) ) ;
#123 = ADVANCED_FACE ( 'NONE', ( #340 ), #346, .T. ) ;
#124 = ORIENTED_EDGE ( 'NONE', *, *, #277, .T. ) ;
#125 = AXIS2_PLACEMENT_3D ( 'NONE', #332, #233, #52 ) ;
#126 = ORIENTED_EDGE ( 'NONE', *, *, #95, .T. ) ;
#127 = DIRECTION ( 'NONE',  ( -1.000000000000000000, -0.000000000000000000, -0.000000000000000000 ) ) ;
#128 = CARTESIAN_POINT ( 'NONE',  ( 0.1000000000000000194, 0.000000000000000000, 0.000000000000000000 ) ) ;
#129 = DIRECTION ( 'NONE',  ( 0.000000000000000000, 0.000000000000000000, 1.000000000000000000 ) ) ;
#130 = CIRCLE ( 'NONE', #266, 0.3424999999999999711 ) ;
#131 = CIRCLE ( 'NONE', #373, 0.5899999999999999689 ) ;
#132 = EDGE_CURVE ( 'NONE', #168, #191, #38, .T. ) ;
#133 = ORIENTED_EDGE ( 'NONE', *, *, #95, .F. ) ;
#134 = ORIENTED_EDGE ( 'NONE', *, *, #186, .T. ) ;
#135 = ORIENTED_EDGE ( 'NONE', *, *, #179, .F. ) ;
#136 = ADVANCED_FACE ( 'NONE', ( #316 ), #155, .T. ) ;
#137 = FILL_AREA_STYLE_COLOUR ( '', #105 ) ;
#138 = ORIENTED_EDGE ( 'NONE', *, *, #247, .T. ) ;
#139 = CYLINDRICAL_SURFACE ( 'NONE', #314, 0.3750000000000001110 ) ;
#140 =( CONVERSION_BASED_UNIT ( 'INCH', #372 ) LENGTH_UNIT ( ) NAMED_UNIT ( #389 ) );
#141 = DIRECTION ( 'NONE',  ( 0.000000000000000000, 0.000000000000000000, 1.000000000000000000 ) ) ;
#142 = LENGTH_MEASURE_WITH_UNIT ( LENGTH_MEASURE( 0.02539999999999999897 ), #59 );
#143 = AXIS2_PLACEMENT_3D ( 'NONE', #67, #104, #165 ) ;
#144 = SURFACE_SIDE_STYLE ('',( #181 ) ) ;
#145 = AXIS2_PLACEMENT_3D ( 'NONE', #299, #269, #119 ) ;
#146 = UNCERTAINTY_MEASURE_WITH_UNIT (LENGTH_MEASURE( 1.000000000000000082E-05 ), #140, 'distance_accuracy_value', 'NONE');
#147 = CIRCLE ( 'NONE', #125, 0.5899999999999999689 ) ;
#148 = APPLICATION_CONTEXT ( 'automotive_design' ) ;
#149 = DIRECTION ( 'NONE',  ( -1.000000000000000000, -0.000000000000000000, -0.000000000000000000 ) ) ;
#150 = CARTESIAN_POINT ( 'NONE',  ( 0.000000000000000000, 3.827021247335476461E-17, -0.3124999999999998335 ) ) ;
#151 = EDGE_CURVE ( 'NONE', #290, #71, #40, .T. ) ;
#152 = CARTESIAN_POINT ( 'NONE',  ( 0.1776090763726898836, 0.000000000000000000, 0.3750000000000001110 ) ) ;
#153 = DIRECTION ( 'NONE',  ( -1.000000000000000000, -0.000000000000000000, -0.000000000000000000 ) ) ;
#154 = CARTESIAN_POINT ( 'NONE',  ( 0.000000000000000000, 0.3424999999999999711, 0.000000000000000000 ) ) ;
#155 = CONICAL_SURFACE ( 'NONE', #265, 0.3750000000000001110, 1.308996938995753423 ) ;
#156 = ORIENTED_EDGE ( 'NONE', *, *, #200, .T. ) ;
#157 = CARTESIAN_POINT ( 'NONE',  ( 0.000000000000000000, 0.000000000000000000, 0.000000000000000000 ) ) ;
#158 = EDGE_LOOP ( 'NONE', ( #3, #126 ) ) ;
#159 = VERTEX_POINT ( 'NONE', #17 ) ;
#160 = AXIS2_PLACEMENT_3D ( 'NONE', #157, #188, #399 ) ;
#161 = FACE_OUTER_BOUND ( 'NONE', #26, .T. ) ;
#162 = EDGE_LOOP ( 'NONE', ( #78, #319, #342, #246 ) ) ;
#163 = EDGE_CURVE ( 'NONE', #380, #159, #348, .T. ) ;
#164 = ORIENTED_EDGE ( 'NONE', *, *, #21, .F. ) ;
#165 = DIRECTION ( 'NONE',  ( 0.000000000000000000, 0.000000000000000000, 1.000000000000000000 ) ) ;
#166 = VERTEX_POINT ( 'NONE', #214 ) ;
#167 = MECHANICAL_DESIGN_GEOMETRIC_PRESENTATION_REPRESENTATION (  '', ( #339 ), #215 ) ;
#168 = VERTEX_POINT ( 'NONE', #392 ) ;
#169 = PLANE ( 'NONE',  #57 ) ;
#170 = APPLICATION_CONTEXT ( 'automotive_design' ) ;
#171 = DIRECTION ( 'NONE',  ( -1.000000000000000000, -0.000000000000000000, -0.000000000000000000 ) ) ;
#172 = DIRECTION ( 'NONE',  ( -0.000000000000000000, 0.000000000000000000, 1.000000000000000000 ) ) ;
#173 = CARTESIAN_POINT ( 'NONE',  ( 1.500000000000000444, 0.000000000000000000, 0.3124999999999998890 ) ) ;
#174 = CARTESIAN_POINT ( 'NONE',  ( 0.000000000000000000, 4.194415287079684691E-17, -0.3424999999999999711 ) ) ;
#175 = EDGE_CURVE ( 'NONE', #7, #168, #91, .T. ) ;
#176 = AXIS2_PLACEMENT_3D ( 'NONE', #94, #183, #276 ) ;
#177 = DIRECTION ( 'NONE',  ( -1.000000000000000000, -0.000000000000000000, -0.000000000000000000 ) ) ;
#178 = VERTEX_POINT ( 'NONE', #23 ) ;
#179 = EDGE_CURVE ( 'NONE', #110, #7, #402, .T. ) ;
#180 = DIRECTION ( 'NONE',  ( -0.2588190451025147443, 1.182917971378671814E-16, -0.9659258262890698665 ) ) ;
#181 = SURFACE_STYLE_FILL_AREA ( #234 ) ;
#182 = DIRECTION ( 'NONE',  ( -1.000000000000000000, -0.000000000000000000, -0.000000000000000000 ) ) ;
#183 = DIRECTION ( 'NONE',  ( -1.000000000000000000, -0.000000000000000000, -0.000000000000000000 ) ) ;
#184 = VECTOR ( 'NONE', #249, 39.37007874015748143 ) ;
#185 = PLANE ( 'NONE',  #235 ) ;
#186 = EDGE_CURVE ( 'NONE', #290, #44, #28, .T. ) ;
#187 = ORIENTED_EDGE ( 'NONE', *, *, #289, .F. ) ;
#188 = DIRECTION ( 'NONE',  ( -1.000000000000000000, -0.000000000000000000, -0.000000000000000000 ) ) ;
#189 = DIRECTION ( 'NONE',  ( -1.000000000000000000, -0.000000000000000000, -0.000000000000000000 ) ) ;
#190 = ORIENTED_EDGE ( 'NONE', *, *, #303, .F. ) ;
#191 = VERTEX_POINT ( 'NONE', #152 ) ;
#192 = PRODUCT_DEFINITION ( 'UNKNOWN', '', #250, #363 ) ;
#193 = DIRECTION ( 'NONE',  ( -1.000000000000000000, -0.000000000000000000, -0.000000000000000000 ) ) ;
#194 = ORIENTED_EDGE ( 'NONE', *, *, #163, .F. ) ;
#195 = ORIENTED_EDGE ( 'NONE', *, *, #387, .F. ) ;
#196 = PRESENTATION_STYLE_ASSIGNMENT (( #108 ) ) ;
#197 = CIRCLE ( 'NONE', #145, 0.3750000000000001110 ) ;
#198 = CARTESIAN_POINT ( 'NONE',  ( 0.1000000000000000194, 4.194415287079684691E-17, -0.3424999999999999711 ) ) ;
#199 = CYLINDRICAL_SURFACE ( 'NONE', #358, 0.3750000000000001110 ) ;
#200 = EDGE_CURVE ( 'NONE', #42, #80, #382, .T. ) ;
#201 = DIRECTION ( 'NONE',  ( -1.000000000000000000, 0.000000000000000000, -0.000000000000000000 ) ) ;
#202 = CARTESIAN_POINT ( 'NONE',  ( 0.000000000000000000, 0.000000000000000000, 0.3750000000000001110 ) ) ;
#203 = FACE_OUTER_BOUND ( 'NONE', #10, .T. ) ;
#204 = DIRECTION ( 'NONE',  ( 1.000000000000000000, 0.000000000000000000, 0.000000000000000000 ) ) ;
#205 = CIRCLE ( 'NONE', #8, 0.3124999999999997224 ) ;
#206 = VECTOR ( 'NONE', #180, 39.37007874015748143 ) ;
#207 = CARTESIAN_POINT ( 'NONE',  ( 1.500000000000000444, 0.000000000000000000, 0.000000000000000000 ) ) ;
#208 = SHAPE_DEFINITION_REPRESENTATION ( #99, #331 ) ;
#209 = DIRECTION ( 'NONE',  ( -1.000000000000000000, -0.000000000000000000, -0.000000000000000000 ) ) ;
#210 = AXIS2_PLACEMENT_3D ( 'NONE', #302, #22, #114 ) ;
#211 = LINE ( 'NONE', #275, #267 ) ;
#212 = CARTESIAN_POINT ( 'NONE',  ( 0.000000000000000000, 0.000000000000000000, 0.000000000000000000 ) ) ;
#213 = EDGE_LOOP ( 'NONE', ( #102, #349, #225, #347 ) ) ;
#214 = CARTESIAN_POINT ( 'NONE',  ( 0.1199999999999999817, 7.225416114969383947E-17, -0.5899999999999999689 ) ) ;
#215 =( GEOMETRIC_REPRESENTATION_CONTEXT ( 3 ) GLOBAL_UNCERTAINTY_ASSIGNED_CONTEXT ( ( #390 ) ) GLOBAL_UNIT_ASSIGNED_CONTEXT ( ( #236, #388, #271 ) ) REPRESENTATION_CONTEXT ( 'NONE', 'WORKASPACE' ) );
#216 = CLOSED_SHELL ( 'NONE', ( #268, #88, #58, #123, #377, #16, #220, #30, #136, #351, #365, #258, #318 ) ) ;
#217 = CARTESIAN_POINT ( 'NONE',  ( 0.000000000000000000, 0.000000000000000000, 0.000000000000000000 ) ) ;
#218 = CARTESIAN_POINT ( 'NONE',  ( 0.000000000000000000, 0.000000000000000000, 0.3124999999999998335 ) ) ;
#219 = EDGE_LOOP ( 'NONE', ( #138, #226, #369, #370 ) ) ;
#220 = ADVANCED_FACE ( 'NONE', ( #248, #398 ), #185, .F. ) ;
#221 = CARTESIAN_POINT ( 'NONE',  ( 0.000000000000000000, 7.225416114969383947E-17, -0.5899999999999999689 ) ) ;
#222 = VECTOR ( 'NONE', #273, 39.37007874015748143 ) ;
#223 = ORIENTED_EDGE ( 'NONE', *, *, #12, .T. ) ;
#224 = AXIS2_PLACEMENT_3D ( 'NONE', #47, #335, #141 ) ;
#225 = ORIENTED_EDGE ( 'NONE', *, *, #227, .T. ) ;
#226 = ORIENTED_EDGE ( 'NONE', *, *, #79, .T. ) ;
#227 = EDGE_CURVE ( 'NONE', #191, #240, #308, .T. ) ;
#228 =( CONVERSION_BASED_UNIT ( 'INCH', #323 ) LENGTH_UNIT ( ) NAMED_UNIT ( #297 ) );
#229 =( GEOMETRIC_REPRESENTATION_CONTEXT ( 3 ) GLOBAL_UNCERTAINTY_ASSIGNED_CONTEXT ( ( #146 ) ) GLOBAL_UNIT_ASSIGNED_CONTEXT ( ( #140, #281, #232 ) ) REPRESENTATION_CONTEXT ( 'NONE', 'WORKASPACE' ) );
#230 = CARTESIAN_POINT ( 'NONE',  ( 0.000000000000000000, 0.000000000000000000, 0.5899999999999999689 ) ) ;
#231 =( NAMED_UNIT ( * ) PLANE_ANGLE_UNIT ( ) SI_UNIT ( $, .RADIAN. ) );
#232 =( NAMED_UNIT ( * ) SI_UNIT ( $, .STERADIAN. ) SOLID_ANGLE_UNIT ( ) );
#233 = DIRECTION ( 'NONE',  ( -1.000000000000000000, -0.000000000000000000, -0.000000000000000000 ) ) ;
#234 = FILL_AREA_STYLE ('',( #393 ) ) ;
#235 = AXIS2_PLACEMENT_3D ( 'NONE', #154, #96, #371 ) ;
#236 =( CONVERSION_BASED_UNIT ( 'INCH', #142 ) LENGTH_UNIT ( ) NAMED_UNIT ( #18 ) );
#237 = CARTESIAN_POINT ( 'NONE',  ( 0.1000000000000000194, 0.000000000000000000, 0.3124999999999997224 ) ) ;
#238 = FACE_OUTER_BOUND ( 'NONE', #376, .T. ) ;
#239 = EDGE_CURVE ( 'NONE', #159, #80, #64, .T. ) ;
#240 = VERTEX_POINT ( 'NONE', #122 ) ;
#241 = DIRECTION ( 'NONE',  ( 0.000000000000000000, 0.000000000000000000, 1.000000000000000000 ) ) ;
#242 = CYLINDRICAL_SURFACE ( 'NONE', #176, 0.3124999999999998335 ) ;
#243 = AXIS2_PLACEMENT_3D ( 'NONE', #106, #171, #272 ) ;
#244 = CARTESIAN_POINT ( 'NONE',  ( 1.500000000000000444, 0.000000000000000000, 0.3750000000000000555 ) ) ;
#245 = CARTESIAN_POINT ( 'NONE',  ( 0.1776090763726898836, 0.000000000000000000, 0.3750000000000001110 ) ) ;
#246 = ORIENTED_EDGE ( 'NONE', *, *, #294, .F. ) ;
#247 = EDGE_CURVE ( 'NONE', #191, #168, #197, .T. ) ;
#248 = FACE_BOUND ( 'NONE', #338, .T. ) ;
#249 = DIRECTION ( 'NONE',  ( -1.000000000000000000, -0.000000000000000000, -0.000000000000000000 ) ) ;
#250 = PRODUCT_DEFINITION_FORMATION_WITH_SPECIFIED_SOURCE ( 'ANY', '', #309, .NOT_KNOWN. ) ;
#251 = FACE_BOUND ( 'NONE', #313, .T. ) ;
#252 = EDGE_LOOP ( 'NONE', ( #317, #134, #270, #74 ) ) ;
#253 = ORIENTED_EDGE ( 'NONE', *, *, #132, .F. ) ;
#254 = VECTOR ( 'NONE', #48, 39.37007874015748143 ) ;
#255 = ORIENTED_EDGE ( 'NONE', *, *, #247, .F. ) ;
#256 = ORIENTED_EDGE ( 'NONE', *, *, #51, .T. ) ;
#257 = PLANE ( 'NONE',  #298 ) ;
#258 = ADVANCED_FACE ( 'NONE', ( #238 ), #242, .F. ) ;
#259 = ORIENTED_EDGE ( 'NONE', *, *, #163, .T. ) ;
#260 =( LENGTH_UNIT ( ) NAMED_UNIT ( * ) SI_UNIT ( $, .METRE. ) );
#261 = CARTESIAN_POINT ( 'NONE',  ( 0.000000000000000000, 0.000000000000000000, 0.000000000000000000 ) ) ;
#262 = MECHANICAL_DESIGN_GEOMETRIC_PRESENTATION_REPRESENTATION (  '', ( #321 ), #60 ) ;
#263 = EDGE_CURVE ( 'NONE', #307, #44, #130, .T. ) ;
#264 = DIRECTION ( 'NONE',  ( -1.000000000000000000, -0.000000000000000000, -0.000000000000000000 ) ) ;
#265 = AXIS2_PLACEMENT_3D ( 'NONE', #41, #127, #280 ) ;
#266 = AXIS2_PLACEMENT_3D ( 'NONE', #212, #304, #25 ) ;
#267 = VECTOR ( 'NONE', #279, 39.37007874015748143 ) ;
#268 = ADVANCED_FACE ( 'NONE', ( #360 ), #325, .F. ) ;
#269 = DIRECTION ( 'NONE',  ( -1.000000000000000000, -0.000000000000000000, -0.000000000000000000 ) ) ;
#270 = ORIENTED_EDGE ( 'NONE', *, *, #21, .T. ) ;
#271 =( NAMED_UNIT ( * ) SI_UNIT ( $, .STERADIAN. ) SOLID_ANGLE_UNIT ( ) );
#272 = DIRECTION ( 'NONE',  ( 0.000000000000000000, 0.000000000000000000, 1.000000000000000000 ) ) ;
#273 = DIRECTION ( 'NONE',  ( -1.000000000000000000, -0.000000000000000000, -0.000000000000000000 ) ) ;
#274 = EDGE_LOOP ( 'NONE', ( #135, #100 ) ) ;
#275 = CARTESIAN_POINT ( 'NONE',  ( 0.000000000000000000, 0.000000000000000000, 0.3424999999999999711 ) ) ;
#276 = DIRECTION ( 'NONE',  ( 0.000000000000000000, 0.000000000000000000, 1.000000000000000000 ) ) ;
#277 = EDGE_CURVE ( 'NONE', #159, #380, #35, .T. ) ;
#278 = AXIS2_PLACEMENT_3D ( 'NONE', #359, #264, #90 ) ;
#279 = DIRECTION ( 'NONE',  ( -1.000000000000000000, -0.000000000000000000, -0.000000000000000000 ) ) ;
#280 = DIRECTION ( 'NONE',  ( 0.000000000000000000, 0.000000000000000000, 1.000000000000000000 ) ) ;
#281 =( NAMED_UNIT ( * ) PLANE_ANGLE_UNIT ( ) SI_UNIT ( $, .RADIAN. ) );
#282 = COLOUR_RGB ( '',0.6470588235294117974, 0.6196078431372549211, 0.5882352941176470784 ) ;
#283 = ORIENTED_EDGE ( 'NONE', *, *, #175, .T. ) ;
#284 = CIRCLE ( 'NONE', #210, 0.3750000000000000555 ) ;
#285 = DIRECTION ( 'NONE',  ( 1.000000000000000000, 0.000000000000000000, 0.000000000000000000 ) ) ;
#286 = ORIENTED_EDGE ( 'NONE', *, *, #186, .F. ) ;
#287 = ORIENTED_EDGE ( 'NONE', *, *, #107, .T. ) ;
#288 = ORIENTED_EDGE ( 'NONE', *, *, #263, .T. ) ;
#289 = EDGE_CURVE ( 'NONE', #80, #42, #205, .T. ) ;
#290 = VERTEX_POINT ( 'NONE', #198 ) ;
#291 = CARTESIAN_POINT ( 'NONE',  ( 1.500000000000000444, 0.3750000000000000555, 0.000000000000000000 ) ) ;
#292 = FACE_OUTER_BOUND ( 'NONE', #39, .T. ) ;
#293 = DIRECTION ( 'NONE',  ( 0.000000000000000000, 0.000000000000000000, 1.000000000000000000 ) ) ;
#294 = EDGE_CURVE ( 'NONE', #380, #42, #381, .T. ) ;
#295 = CARTESIAN_POINT ( 'NONE',  ( 0.000000000000000000, 0.000000000000000000, 0.000000000000000000 ) ) ;
#296 = CARTESIAN_POINT ( 'NONE',  ( 0.000000000000000000, 0.000000000000000000, 0.000000000000000000 ) ) ;
#297 = DIMENSIONAL_EXPONENTS ( 1.000000000000000000, 0.000000000000000000, 0.000000000000000000, 0.000000000000000000, 0.000000000000000000, 0.000000000000000000, 0.000000000000000000 ) ;
#298 = AXIS2_PLACEMENT_3D ( 'NONE', #291, #201, #172 ) ;
#299 = CARTESIAN_POINT ( 'NONE',  ( 0.1776090763726898836, 0.000000000000000000, 0.000000000000000000 ) ) ;
#300 = AXIS2_PLACEMENT_3D ( 'NONE', #24, #209, #391 ) ;
#301 = ORIENTED_EDGE ( 'NONE', *, *, #175, .F. ) ;
#302 = CARTESIAN_POINT ( 'NONE',  ( 1.500000000000000444, 0.000000000000000000, 0.000000000000000000 ) ) ;
#303 = EDGE_CURVE ( 'NONE', #110, #191, #374, .T. ) ;
#304 = DIRECTION ( 'NONE',  ( -1.000000000000000000, -0.000000000000000000, -0.000000000000000000 ) ) ;
#305 = ORIENTED_EDGE ( 'NONE', *, *, #294, .T. ) ;
#306 = AXIS2_PLACEMENT_3D ( 'NONE', #128, #68, #56 ) ;
#307 = VERTEX_POINT ( 'NONE', #83 ) ;
#308 = LINE ( 'NONE', #245, #403 ) ;
#309 = PRODUCT ( '720000', '720000', '', ( #62 ) ) ;
#310 = ORIENTED_EDGE ( 'NONE', *, *, #51, .F. ) ;
#311 = LINE ( 'NONE', #230, #184 ) ;
#312 = VECTOR ( 'NONE', #395, 39.37007874015748143 ) ;
#313 = EDGE_LOOP ( 'NONE', ( #259, #124 ) ) ;
#314 = AXIS2_PLACEMENT_3D ( 'NONE', #217, #109, #101 ) ;
#315 = ORIENTED_EDGE ( 'NONE', *, *, #200, .F. ) ;
#316 = FACE_OUTER_BOUND ( 'NONE', #213, .T. ) ;
#317 = ORIENTED_EDGE ( 'NONE', *, *, #151, .F. ) ;
#318 = ADVANCED_FACE ( 'NONE', ( #86, #161 ), #169, .F. ) ;
#319 = ORIENTED_EDGE ( 'NONE', *, *, #239, .T. ) ;
#320 = CARTESIAN_POINT ( 'NONE',  ( 1.500000000000000444, 0.000000000000000000, 0.000000000000000000 ) ) ;
#321 = STYLED_ITEM ( 'NONE', ( #196 ), #6 ) ;
#322 = DIRECTION ( 'NONE',  ( -1.000000000000000000, -0.000000000000000000, -0.000000000000000000 ) ) ;
#323 = LENGTH_MEASURE_WITH_UNIT ( LENGTH_MEASURE( 0.02539999999999999897 ), #397 );
#324 = DIRECTION ( 'NONE',  ( -1.000000000000000000, -0.000000000000000000, -0.000000000000000000 ) ) ;
#325 = CYLINDRICAL_SURFACE ( 'NONE', #355, 0.3124999999999998335 ) ;
#326 = DIRECTION ( 'NONE',  ( 0.000000000000000000, 0.000000000000000000, 1.000000000000000000 ) ) ;
#327 = DIRECTION ( 'NONE',  ( 0.000000000000000000, 0.000000000000000000, 1.000000000000000000 ) ) ;
#328 = CIRCLE ( 'NONE', #333, 0.5899999999999999689 ) ;
#329 = SURFACE_STYLE_USAGE ( .BOTH. , #144 ) ;
#330 = DIRECTION ( 'NONE',  ( -1.000000000000000000, -0.000000000000000000, -0.000000000000000000 ) ) ;
#331 = ADVANCED_BREP_SHAPE_REPRESENTATION ( '720000', ( #6, #112 ), #229 ) ;
#332 = CARTESIAN_POINT ( 'NONE',  ( 0.1199999999999999817, 0.000000000000000000, 0.000000000000000000 ) ) ;
#333 = AXIS2_PLACEMENT_3D ( 'NONE', #295, #149, #364 ) ;
#334 = PRESENTATION_STYLE_ASSIGNMENT (( #329 ) ) ;
#335 = DIRECTION ( 'NONE',  ( -1.000000000000000000, -0.000000000000000000, -0.000000000000000000 ) ) ;
#336 = VERTEX_POINT ( 'NONE', #111 ) ;
#337 = LINE ( 'NONE', #221, #2 ) ;
#338 = EDGE_LOOP ( 'NONE', ( #31, #164 ) ) ;
#339 = STYLED_ITEM ( 'NONE', ( #334 ), #331 ) ;
#340 = FACE_OUTER_BOUND ( 'NONE', #401, .T. ) ;
#341 = DIRECTION ( 'NONE',  ( 0.000000000000000000, 0.000000000000000000, 1.000000000000000000 ) ) ;
#342 = ORIENTED_EDGE ( 'NONE', *, *, #289, .T. ) ;
#343 = AXIS2_PLACEMENT_3D ( 'NONE', #207, #330, #341 ) ;
#344 = FACE_OUTER_BOUND ( 'NONE', #274, .T. ) ;
#345 = EDGE_LOOP ( 'NONE', ( #103, #223, #378, #133 ) ) ;
#346 = CYLINDRICAL_SURFACE ( 'NONE', #160, 0.5899999999999999689 ) ;
#347 = ORIENTED_EDGE ( 'NONE', *, *, #12, .F. ) ;
#348 = CIRCLE ( 'NONE', #366, 0.3124999999999998890 ) ;
#349 = ORIENTED_EDGE ( 'NONE', *, *, #132, .T. ) ;
#350 = CIRCLE ( 'NONE', #224, 0.3424999999999999711 ) ;
#351 = ADVANCED_FACE ( 'NONE', ( #73 ), #139, .T. ) ;
#352 = FILL_AREA_STYLE ('',( #137 ) ) ;
#353 = ORIENTED_EDGE ( 'NONE', *, *, #179, .T. ) ;
#354 = DIRECTION ( 'NONE',  ( -1.000000000000000000, -0.000000000000000000, -0.000000000000000000 ) ) ;
#355 = AXIS2_PLACEMENT_3D ( 'NONE', #357, #37, #293 ) ;
#356 = CYLINDRICAL_SURFACE ( 'NONE', #97, 0.5899999999999999689 ) ;
#357 = CARTESIAN_POINT ( 'NONE',  ( 0.000000000000000000, 0.000000000000000000, 0.000000000000000000 ) ) ;
#358 = AXIS2_PLACEMENT_3D ( 'NONE', #121, #322, #241 ) ;
#359 = CARTESIAN_POINT ( 'NONE',  ( 0.1776090763726898836, 0.000000000000000000, 0.000000000000000000 ) ) ;
#360 = FACE_OUTER_BOUND ( 'NONE', #162, .T. ) ;
#361 = DIRECTION ( 'NONE',  ( 0.000000000000000000, 0.000000000000000000, 1.000000000000000000 ) ) ;
#362 = VECTOR ( 'NONE', #46, 39.37007874015748143 ) ;
#363 = PRODUCT_DEFINITION_CONTEXT ( 'detailed design', #170, 'design' ) ;
#364 = DIRECTION ( 'NONE',  ( 0.000000000000000000, 0.000000000000000000, 1.000000000000000000 ) ) ;
#365 = ADVANCED_FACE ( 'NONE', ( #344, #251 ), #257, .F. ) ;
#366 = AXIS2_PLACEMENT_3D ( 'NONE', #117, #324, #129 ) ;
#367 = CARTESIAN_POINT ( 'NONE',  ( 0.000000000000000000, 0.000000000000000000, 0.000000000000000000 ) ) ;
#368 = CARTESIAN_POINT ( 'NONE',  ( 0.000000000000000000, 4.194415287079684691E-17, -0.3424999999999999711 ) ) ;
#369 = ORIENTED_EDGE ( 'NONE', *, *, #36, .F. ) ;
#370 = ORIENTED_EDGE ( 'NONE', *, *, #227, .F. ) ;
#371 = DIRECTION ( 'NONE',  ( 0.000000000000000000, 0.000000000000000000, -1.000000000000000000 ) ) ;
#372 = LENGTH_MEASURE_WITH_UNIT ( LENGTH_MEASURE( 0.02539999999999999897 ), #260 );
#373 = AXIS2_PLACEMENT_3D ( 'NONE', #367, #153, #93 ) ;
#374 = LINE ( 'NONE', #202, #362 ) ;
#375 = ORIENTED_EDGE ( 'NONE', *, *, #303, .T. ) ;
#376 = EDGE_LOOP ( 'NONE', ( #20, #194, #305, #156 ) ) ;
#377 = ADVANCED_FACE ( 'NONE', ( #14 ), #11, .F. ) ;
#378 = ORIENTED_EDGE ( 'NONE', *, *, #387, .T. ) ;
#379 = SURFACE_SIDE_STYLE ('',( #43 ) ) ;
#380 = VERTEX_POINT ( 'NONE', #173 ) ;
#381 = LINE ( 'NONE', #218, #254 ) ;
#382 = CIRCLE ( 'NONE', #306, 0.3124999999999997224 ) ;
#383 = CARTESIAN_POINT ( 'NONE',  ( 0.1776090763726898836, 4.592425496802576068E-17, -0.3750000000000001110 ) ) ;
#384 = DIRECTION ( 'NONE',  ( 0.000000000000000000, 0.000000000000000000, 1.000000000000000000 ) ) ;
#385 = CIRCLE ( 'NONE', #300, 0.3424999999999999711 ) ;
#386 = DIRECTION ( 'NONE',  ( -1.000000000000000000, -0.000000000000000000, -0.000000000000000000 ) ) ;
#387 = EDGE_CURVE ( 'NONE', #240, #336, #311, .T. ) ;
#388 =( NAMED_UNIT ( * ) PLANE_ANGLE_UNIT ( ) SI_UNIT ( $, .RADIAN. ) );
#389 = DIMENSIONAL_EXPONENTS ( 1.000000000000000000, 0.000000000000000000, 0.000000000000000000, 0.000000000000000000, 0.000000000000000000, 0.000000000000000000, 0.000000000000000000 ) ;
#390 = UNCERTAINTY_MEASURE_WITH_UNIT (LENGTH_MEASURE( 1.000000000000000082E-05 ), #236, 'distance_accuracy_value', 'NONE');
#391 = DIRECTION ( 'NONE',  ( 0.000000000000000000, 0.000000000000000000, 1.000000000000000000 ) ) ;
#392 = CARTESIAN_POINT ( 'NONE',  ( 0.1776090763726898836, 5.908920805885980315E-17, -0.3750000000000001110 ) ) ;
#393 = FILL_AREA_STYLE_COLOUR ( '', #282 ) ;
#394 = CARTESIAN_POINT ( 'NONE',  ( 0.000000000000000000, 0.000000000000000000, 0.000000000000000000 ) ) ;
#395 = DIRECTION ( 'NONE',  ( -1.000000000000000000, -0.000000000000000000, -0.000000000000000000 ) ) ;
#396 = EDGE_LOOP ( 'NONE', ( #315, #187 ) ) ;
#397 =( LENGTH_UNIT ( ) NAMED_UNIT ( * ) SI_UNIT ( $, .METRE. ) );
#398 = FACE_OUTER_BOUND ( 'NONE', #158, .T. ) ;
#399 = DIRECTION ( 'NONE',  ( 0.000000000000000000, 0.000000000000000000, 1.000000000000000000 ) ) ;
#400 = CARTESIAN_POINT ( 'NONE',  ( 0.000000000000000000, 4.592425496802576068E-17, -0.3750000000000001110 ) ) ;
#401 = EDGE_LOOP ( 'NONE', ( #77, #9, #5, #195 ) ) ;
#402 = CIRCLE ( 'NONE', #343, 0.3750000000000000555 ) ;
#403 = VECTOR ( 'NONE', #19, 39.37007874015748143 ) ;
ENDSEC;
END-ISO-10303-21;
