ISO-10303-21;
HEADER;
FILE_DESCRIPTION (( 'STEP AP214' ),
    '1' );
FILE_NAME ('728035.STEP',
    '2023-12-30T15:41:06',
    ( '' ),
    ( '' ),
    'SwSTEP 2.0',
    'SolidWorks 2022',
    '' );
FILE_SCHEMA (( 'AUTOMOTIVE_DESIGN' ));
ENDSEC;

DATA;
#1 = CARTESIAN_POINT ( 'NONE',  ( 0.000000000000000000, 0.000000000000000000, 60.00000000000000000 ) ) ;
#2 = ADVANCED_FACE ( 'NONE', ( #144 ), #108, .F. ) ;
#3 = AXIS2_PLACEMENT_3D ( 'NONE', #21, #35, #196 ) ;
#4 = VERTEX_POINT ( 'NONE', #72 ) ;
#5 = APPLICATION_PROTOCOL_DEFINITION ( 'draft international standard', 'automotive_design', 1998, #82 ) ;
#6 = ORIENTED_EDGE ( 'NONE', *, *, #43, .F. ) ;
#7 = CARTESIAN_POINT ( 'NONE',  ( 0.3749999999999999445, 4.592425496802573602E-17, 60.00000000000000000 ) ) ;
#8 = ORIENTED_EDGE ( 'NONE', *, *, #222, .T. ) ;
#9 = EDGE_CURVE ( 'NONE', #32, #116, #127, .T. ) ;
#10 = EDGE_LOOP ( 'NONE', ( #161, #74 ) ) ;
#11 = DIRECTION ( 'NONE',  ( -0.000000000000000000, -0.000000000000000000, -1.000000000000000000 ) ) ;
#12 = VECTOR ( 'NONE', #16, 39.37007874015748143 ) ;
#13 = CLOSED_SHELL ( 'NONE', ( #2, #105, #178, #101, #102, #53 ) ) ;
#14 = DIRECTION ( 'NONE',  ( 1.000000000000000000, 0.000000000000000000, -0.000000000000000000 ) ) ;
#15 = AXIS2_PLACEMENT_3D ( 'NONE', #78, #143, #215 ) ;
#16 = DIRECTION ( 'NONE',  ( -0.000000000000000000, -0.000000000000000000, -1.000000000000000000 ) ) ;
#17 = DIRECTION ( 'NONE',  ( 0.000000000000000000, 0.000000000000000000, 1.000000000000000000 ) ) ;
#18 = AXIS2_PLACEMENT_3D ( 'NONE', #139, #126, #39 ) ;
#19 = CYLINDRICAL_SURFACE ( 'NONE', #157, 0.4400000000000001132 ) ;
#20 = CARTESIAN_POINT ( 'NONE',  ( 0.4400000000000001132, 5.388445916248355122E-17, 0.000000000000000000 ) ) ;
#21 = CARTESIAN_POINT ( 'NONE',  ( 0.000000000000000000, 0.000000000000000000, 60.00000000000000000 ) ) ;
#22 = LENGTH_MEASURE_WITH_UNIT ( LENGTH_MEASURE( 0.02539999999999999897 ), #125 );
#23 = VERTEX_POINT ( 'NONE', #7 ) ;
#24 = CYLINDRICAL_SURFACE ( 'NONE', #203, 0.4400000000000001132 ) ;
#25 =( NAMED_UNIT ( * ) SI_UNIT ( $, .STERADIAN. ) SOLID_ANGLE_UNIT ( ) );
#26 = ORIENTED_EDGE ( 'NONE', *, *, #199, .T. ) ;
#27 = AXIS2_PLACEMENT_3D ( 'NONE', #155, #118, #88 ) ;
#28 = FILL_AREA_STYLE ('',( #45 ) ) ;
#29 = CARTESIAN_POINT ( 'NONE',  ( 0.000000000000000000, 0.000000000000000000, 60.00000000000000000 ) ) ;
#30 = CARTESIAN_POINT ( 'NONE',  ( -0.3749999999999999445, 0.000000000000000000, 60.00000000000000000 ) ) ;
#31 = EDGE_CURVE ( 'NONE', #202, #32, #138, .T. ) ;
#32 = VERTEX_POINT ( 'NONE', #20 ) ;
#33 = AXIS2_PLACEMENT_3D ( 'NONE', #204, #173, #14 ) ;
#34 = AXIS2_PLACEMENT_3D ( 'NONE', #183, #100, #64 ) ;
#35 = DIRECTION ( 'NONE',  ( -0.000000000000000000, -0.000000000000000000, -1.000000000000000000 ) ) ;
#36 = PRODUCT_DEFINITION ( 'UNKNOWN', '', #201, #69 ) ;
#37 = SHAPE_DEFINITION_REPRESENTATION ( #220, #86 ) ;
#38 = ORIENTED_EDGE ( 'NONE', *, *, #145, .T. ) ;
#39 = DIRECTION ( 'NONE',  ( 1.000000000000000000, 0.000000000000000000, 0.000000000000000000 ) ) ;
#40 = VECTOR ( 'NONE', #212, 39.37007874015748143 ) ;
#41 = COLOUR_RGB ( '',1.000000000000000000, 1.000000000000000000, 1.000000000000000000 ) ;
#42 = DIRECTION ( 'NONE',  ( 0.000000000000000000, 0.000000000000000000, 1.000000000000000000 ) ) ;
#43 = EDGE_CURVE ( 'NONE', #180, #116, #122, .T. ) ;
#44 = PRODUCT ( '728035', '728035', '', ( #110 ) ) ;
#45 = FILL_AREA_STYLE_COLOUR ( '', #41 ) ;
#46 = CIRCLE ( 'NONE', #148, 0.4400000000000001132 ) ;
#47 = EDGE_LOOP ( 'NONE', ( #38, #193 ) ) ;
#48 = LINE ( 'NONE', #172, #12 ) ;
#49 = ORIENTED_EDGE ( 'NONE', *, *, #222, .F. ) ;
#50 = VECTOR ( 'NONE', #163, 39.37007874015748143 ) ;
#51 = ORIENTED_EDGE ( 'NONE', *, *, #96, .T. ) ;
#52 = DIRECTION ( 'NONE',  ( 1.000000000000000000, 0.000000000000000000, 0.000000000000000000 ) ) ;
#53 = ADVANCED_FACE ( 'NONE', ( #213 ), #75, .F. ) ;
#54 = DIRECTION ( 'NONE',  ( -0.000000000000000000, -0.000000000000000000, -1.000000000000000000 ) ) ;
#55 = FILL_AREA_STYLE ('',( #160 ) ) ;
#56 = EDGE_CURVE ( 'NONE', #116, #32, #46, .T. ) ;
#57 = EDGE_LOOP ( 'NONE', ( #186, #135, #109, #131 ) ) ;
#58 =( GEOMETRIC_REPRESENTATION_CONTEXT ( 3 ) GLOBAL_UNCERTAINTY_ASSIGNED_CONTEXT ( ( #80 ) ) GLOBAL_UNIT_ASSIGNED_CONTEXT ( ( #170, #168, #25 ) ) REPRESENTATION_CONTEXT ( 'NONE', 'WORKASPACE' ) );
#59 = ORIENTED_EDGE ( 'NONE', *, *, #31, .T. ) ;
#60 = CARTESIAN_POINT ( 'NONE',  ( -0.4400000000000001132, 0.000000000000000000, 60.00000000000000000 ) ) ;
#61 = CARTESIAN_POINT ( 'NONE',  ( 0.000000000000000000, 0.000000000000000000, 60.00000000000000000 ) ) ;
#62 = CIRCLE ( 'NONE', #185, 0.4400000000000001132 ) ;
#63 = PRESENTATION_LAYER_ASSIGNMENT (  '', '', ( #71 ) ) ;
#64 = DIRECTION ( 'NONE',  ( 1.000000000000000000, 0.000000000000000000, 0.000000000000000000 ) ) ;
#65 = MECHANICAL_DESIGN_GEOMETRIC_PRESENTATION_REPRESENTATION (  '', ( #141 ), #113 ) ;
#66 = DIRECTION ( 'NONE',  ( 0.000000000000000000, 0.000000000000000000, 1.000000000000000000 ) ) ;
#67 = DIRECTION ( 'NONE',  ( 0.000000000000000000, 0.000000000000000000, 1.000000000000000000 ) ) ;
#68 = SURFACE_SIDE_STYLE ('',( #189 ) ) ;
#69 = PRODUCT_DEFINITION_CONTEXT ( 'detailed design', #151, 'design' ) ;
#70 = LENGTH_MEASURE_WITH_UNIT ( LENGTH_MEASURE( 0.02539999999999999897 ), #223 );
#71 = STYLED_ITEM ( 'NONE', ( #114 ), #205 ) ;
#72 = CARTESIAN_POINT ( 'NONE',  ( 0.3749999999999999445, 4.592425496802573602E-17, 0.000000000000000000 ) ) ;
#73 = ORIENTED_EDGE ( 'NONE', *, *, #200, .T. ) ;
#74 = ORIENTED_EDGE ( 'NONE', *, *, #9, .F. ) ;
#75 = CYLINDRICAL_SURFACE ( 'NONE', #152, 0.3749999999999999445 ) ;
#76 =( CONVERSION_BASED_UNIT ( 'INCH', #22 ) LENGTH_UNIT ( ) NAMED_UNIT ( #84 ) );
#77 = VERTEX_POINT ( 'NONE', #191 ) ;
#78 = CARTESIAN_POINT ( 'NONE',  ( 0.000000000000000000, 0.000000000000000000, 0.000000000000000000 ) ) ;
#79 = CARTESIAN_POINT ( 'NONE',  ( 0.000000000000000000, 0.000000000000000000, 60.00000000000000000 ) ) ;
#80 = UNCERTAINTY_MEASURE_WITH_UNIT (LENGTH_MEASURE( 1.000000000000000082E-05 ), #170, 'distance_accuracy_value', 'NONE');
#81 = CARTESIAN_POINT ( 'NONE',  ( -0.3749999999999999445, 0.000000000000000000, 60.00000000000000000 ) ) ;
#82 = APPLICATION_CONTEXT ( 'automotive_design' ) ;
#83 = LENGTH_MEASURE_WITH_UNIT ( LENGTH_MEASURE( 0.02539999999999999897 ), #117 );
#84 = DIMENSIONAL_EXPONENTS ( 1.000000000000000000, 0.000000000000000000, 0.000000000000000000, 0.000000000000000000, 0.000000000000000000, 0.000000000000000000, 0.000000000000000000 ) ;
#85 = PLANE ( 'NONE',  #33 ) ;
#86 = ADVANCED_BREP_SHAPE_REPRESENTATION ( '728035', ( #205, #15 ), #58 ) ;
#87 = DIMENSIONAL_EXPONENTS ( 1.000000000000000000, 0.000000000000000000, 0.000000000000000000, 0.000000000000000000, 0.000000000000000000, 0.000000000000000000, 0.000000000000000000 ) ;
#88 = DIRECTION ( 'NONE',  ( 1.000000000000000000, 0.000000000000000000, 0.000000000000000000 ) ) ;
#89 = EDGE_LOOP ( 'NONE', ( #158, #154, #216, #188 ) ) ;
#90 = CARTESIAN_POINT ( 'NONE',  ( 0.000000000000000000, 0.000000000000000000, 60.00000000000000000 ) ) ;
#91 = EDGE_LOOP ( 'NONE', ( #142, #59, #92, #6 ) ) ;
#92 = ORIENTED_EDGE ( 'NONE', *, *, #9, .T. ) ;
#93 = DIRECTION ( 'NONE',  ( -1.000000000000000000, 0.000000000000000000, 0.000000000000000000 ) ) ;
#94 = SURFACE_STYLE_USAGE ( .BOTH. , #211 ) ;
#95 = DIRECTION ( 'NONE',  ( 1.000000000000000000, 0.000000000000000000, 0.000000000000000000 ) ) ;
#96 = EDGE_CURVE ( 'NONE', #179, #77, #214, .T. ) ;
#97 = CIRCLE ( 'NONE', #34, 0.4400000000000001132 ) ;
#98 = MECHANICAL_DESIGN_GEOMETRIC_PRESENTATION_REPRESENTATION (  '', ( #71 ), #166 ) ;
#99 = SURFACE_STYLE_USAGE ( .BOTH. , #68 ) ;
#100 = DIRECTION ( 'NONE',  ( 0.000000000000000000, 0.000000000000000000, 1.000000000000000000 ) ) ;
#101 = ADVANCED_FACE ( 'NONE', ( #121, #106 ), #174, .F. ) ;
#102 = ADVANCED_FACE ( 'NONE', ( #107 ), #19, .T. ) ;
#103 = DIRECTION ( 'NONE',  ( 0.000000000000000000, 0.000000000000000000, 1.000000000000000000 ) ) ;
#104 = DIRECTION ( 'NONE',  ( 1.000000000000000000, 0.000000000000000000, 0.000000000000000000 ) ) ;
#105 = ADVANCED_FACE ( 'NONE', ( #112 ), #24, .T. ) ;
#106 = FACE_BOUND ( 'NONE', #159, .T. ) ;
#107 = FACE_OUTER_BOUND ( 'NONE', #89, .T. ) ;
#108 = CYLINDRICAL_SURFACE ( 'NONE', #3, 0.3749999999999999445 ) ;
#109 = ORIENTED_EDGE ( 'NONE', *, *, #199, .F. ) ;
#110 = PRODUCT_CONTEXT ( 'NONE', #82, 'mechanical' ) ;
#111 = CARTESIAN_POINT ( 'NONE',  ( 0.4400000000000001132, 5.388445916248355122E-17, 60.00000000000000000 ) ) ;
#112 = FACE_OUTER_BOUND ( 'NONE', #91, .T. ) ;
#113 =( GEOMETRIC_REPRESENTATION_CONTEXT ( 3 ) GLOBAL_UNCERTAINTY_ASSIGNED_CONTEXT ( ( #218 ) ) GLOBAL_UNIT_ASSIGNED_CONTEXT ( ( #76, #175, #162 ) ) REPRESENTATION_CONTEXT ( 'NONE', 'WORKASPACE' ) );
#114 = PRESENTATION_STYLE_ASSIGNMENT (( #99 ) ) ;
#115 = CIRCLE ( 'NONE', #133, 0.3749999999999999445 ) ;
#116 = VERTEX_POINT ( 'NONE', #197 ) ;
#117 =( LENGTH_UNIT ( ) NAMED_UNIT ( * ) SI_UNIT ( $, .METRE. ) );
#118 = DIRECTION ( 'NONE',  ( 0.000000000000000000, 0.000000000000000000, 1.000000000000000000 ) ) ;
#119 = EDGE_CURVE ( 'NONE', #179, #23, #129, .T. ) ;
#120 = DIRECTION ( 'NONE',  ( 1.000000000000000000, 0.000000000000000000, 0.000000000000000000 ) ) ;
#121 = FACE_OUTER_BOUND ( 'NONE', #10, .T. ) ;
#122 = LINE ( 'NONE', #60, #40 ) ;
#123 = VECTOR ( 'NONE', #54, 39.37007874015748143 ) ;
#124 = CARTESIAN_POINT ( 'NONE',  ( 0.000000000000000000, 0.000000000000000000, 0.000000000000000000 ) ) ;
#125 =( LENGTH_UNIT ( ) NAMED_UNIT ( * ) SI_UNIT ( $, .METRE. ) );
#126 = DIRECTION ( 'NONE',  ( 0.000000000000000000, 0.000000000000000000, 1.000000000000000000 ) ) ;
#127 = CIRCLE ( 'NONE', #18, 0.4400000000000001132 ) ;
#128 = DIRECTION ( 'NONE',  ( -1.000000000000000000, 0.000000000000000000, 0.000000000000000000 ) ) ;
#129 = CIRCLE ( 'NONE', #198, 0.3749999999999999445 ) ;
#130 = CIRCLE ( 'NONE', #27, 0.3749999999999999445 ) ;
#131 = ORIENTED_EDGE ( 'NONE', *, *, #96, .F. ) ;
#132 = CARTESIAN_POINT ( 'NONE',  ( 0.4400000000000001132, 5.388445916248355122E-17, 60.00000000000000000 ) ) ;
#133 = AXIS2_PLACEMENT_3D ( 'NONE', #1, #66, #52 ) ;
#134 =( NAMED_UNIT ( * ) SI_UNIT ( $, .STERADIAN. ) SOLID_ANGLE_UNIT ( ) );
#135 = ORIENTED_EDGE ( 'NONE', *, *, #184, .T. ) ;
#136 =( NAMED_UNIT ( * ) PLANE_ANGLE_UNIT ( ) SI_UNIT ( $, .RADIAN. ) );
#137 = DIRECTION ( 'NONE',  ( 1.000000000000000000, 0.000000000000000000, 0.000000000000000000 ) ) ;
#138 = LINE ( 'NONE', #111, #50 ) ;
#139 = CARTESIAN_POINT ( 'NONE',  ( 0.000000000000000000, 0.000000000000000000, 0.000000000000000000 ) ) ;
#140 = EDGE_LOOP ( 'NONE', ( #206, #73, #51, #49 ) ) ;
#141 = STYLED_ITEM ( 'NONE', ( #181 ), #86 ) ;
#142 = ORIENTED_EDGE ( 'NONE', *, *, #156, .F. ) ;
#143 = DIRECTION ( 'NONE',  ( 0.000000000000000000, 0.000000000000000000, 1.000000000000000000 ) ) ;
#144 = FACE_OUTER_BOUND ( 'NONE', #57, .T. ) ;
#145 = EDGE_CURVE ( 'NONE', #180, #202, #97, .T. ) ;
#146 = PRODUCT_RELATED_PRODUCT_CATEGORY ( 'part', '', ( #44 ) ) ;
#147 = DIRECTION ( 'NONE',  ( -1.000000000000000000, 0.000000000000000000, 0.000000000000000000 ) ) ;
#148 = AXIS2_PLACEMENT_3D ( 'NONE', #124, #194, #120 ) ;
#149 = PRESENTATION_LAYER_ASSIGNMENT (  '', '', ( #141 ) ) ;
#150 = UNCERTAINTY_MEASURE_WITH_UNIT (LENGTH_MEASURE( 1.000000000000000082E-05 ), #153, 'distance_accuracy_value', 'NONE');
#151 = APPLICATION_CONTEXT ( 'automotive_design' ) ;
#152 = AXIS2_PLACEMENT_3D ( 'NONE', #182, #210, #93 ) ;
#153 =( CONVERSION_BASED_UNIT ( 'INCH', #83 ) LENGTH_UNIT ( ) NAMED_UNIT ( #87 ) );
#154 = ORIENTED_EDGE ( 'NONE', *, *, #145, .F. ) ;
#155 = CARTESIAN_POINT ( 'NONE',  ( 0.000000000000000000, 0.000000000000000000, 0.000000000000000000 ) ) ;
#156 = EDGE_CURVE ( 'NONE', #202, #180, #62, .T. ) ;
#157 = AXIS2_PLACEMENT_3D ( 'NONE', #90, #11, #128 ) ;
#158 = ORIENTED_EDGE ( 'NONE', *, *, #31, .F. ) ;
#159 = EDGE_LOOP ( 'NONE', ( #26, #8 ) ) ;
#160 = FILL_AREA_STYLE_COLOUR ( '', #171 ) ;
#161 = ORIENTED_EDGE ( 'NONE', *, *, #56, .F. ) ;
#162 =( NAMED_UNIT ( * ) SI_UNIT ( $, .STERADIAN. ) SOLID_ANGLE_UNIT ( ) );
#163 = DIRECTION ( 'NONE',  ( -0.000000000000000000, -0.000000000000000000, -1.000000000000000000 ) ) ;
#164 = EDGE_LOOP ( 'NONE', ( #169, #208 ) ) ;
#165 = DIRECTION ( 'NONE',  ( -0.000000000000000000, -0.000000000000000000, -1.000000000000000000 ) ) ;
#166 =( GEOMETRIC_REPRESENTATION_CONTEXT ( 3 ) GLOBAL_UNCERTAINTY_ASSIGNED_CONTEXT ( ( #150 ) ) GLOBAL_UNIT_ASSIGNED_CONTEXT ( ( #153, #136, #134 ) ) REPRESENTATION_CONTEXT ( 'NONE', 'WORKASPACE' ) );
#167 = AXIS2_PLACEMENT_3D ( 'NONE', #192, #17, #177 ) ;
#168 =( NAMED_UNIT ( * ) PLANE_ANGLE_UNIT ( ) SI_UNIT ( $, .RADIAN. ) );
#169 = ORIENTED_EDGE ( 'NONE', *, *, #119, .F. ) ;
#170 =( CONVERSION_BASED_UNIT ( 'INCH', #70 ) LENGTH_UNIT ( ) NAMED_UNIT ( #187 ) );
#171 = COLOUR_RGB ( '',1.000000000000000000, 1.000000000000000000, 1.000000000000000000 ) ;
#172 = CARTESIAN_POINT ( 'NONE',  ( 0.3749999999999999445, 4.592425496802573602E-17, 60.00000000000000000 ) ) ;
#173 = DIRECTION ( 'NONE',  ( 0.000000000000000000, 0.000000000000000000, 1.000000000000000000 ) ) ;
#174 = PLANE ( 'NONE',  #167 ) ;
#175 =( NAMED_UNIT ( * ) PLANE_ANGLE_UNIT ( ) SI_UNIT ( $, .RADIAN. ) );
#176 = CIRCLE ( 'NONE', #217, 0.3749999999999999445 ) ;
#177 = DIRECTION ( 'NONE',  ( 1.000000000000000000, 0.000000000000000000, -0.000000000000000000 ) ) ;
#178 = ADVANCED_FACE ( 'NONE', ( #207, #221 ), #85, .T. ) ;
#179 = VERTEX_POINT ( 'NONE', #81 ) ;
#180 = VERTEX_POINT ( 'NONE', #219 ) ;
#181 = PRESENTATION_STYLE_ASSIGNMENT (( #94 ) ) ;
#182 = CARTESIAN_POINT ( 'NONE',  ( 0.000000000000000000, 0.000000000000000000, 60.00000000000000000 ) ) ;
#183 = CARTESIAN_POINT ( 'NONE',  ( 0.000000000000000000, 0.000000000000000000, 60.00000000000000000 ) ) ;
#184 = EDGE_CURVE ( 'NONE', #23, #4, #48, .T. ) ;
#185 = AXIS2_PLACEMENT_3D ( 'NONE', #29, #103, #104 ) ;
#186 = ORIENTED_EDGE ( 'NONE', *, *, #119, .T. ) ;
#187 = DIMENSIONAL_EXPONENTS ( 1.000000000000000000, 0.000000000000000000, 0.000000000000000000, 0.000000000000000000, 0.000000000000000000, 0.000000000000000000, 0.000000000000000000 ) ;
#188 = ORIENTED_EDGE ( 'NONE', *, *, #56, .T. ) ;
#189 = SURFACE_STYLE_FILL_AREA ( #28 ) ;
#190 = CARTESIAN_POINT ( 'NONE',  ( 0.000000000000000000, 0.000000000000000000, 0.000000000000000000 ) ) ;
#191 = CARTESIAN_POINT ( 'NONE',  ( -0.3749999999999999445, 0.000000000000000000, 0.000000000000000000 ) ) ;
#192 = CARTESIAN_POINT ( 'NONE',  ( 0.000000000000000000, 0.000000000000000000, 0.000000000000000000 ) ) ;
#193 = ORIENTED_EDGE ( 'NONE', *, *, #156, .T. ) ;
#194 = DIRECTION ( 'NONE',  ( 0.000000000000000000, 0.000000000000000000, 1.000000000000000000 ) ) ;
#195 = SURFACE_STYLE_FILL_AREA ( #55 ) ;
#196 = DIRECTION ( 'NONE',  ( -1.000000000000000000, 0.000000000000000000, 0.000000000000000000 ) ) ;
#197 = CARTESIAN_POINT ( 'NONE',  ( -0.4400000000000001132, 0.000000000000000000, 0.000000000000000000 ) ) ;
#198 = AXIS2_PLACEMENT_3D ( 'NONE', #61, #42, #95 ) ;
#199 = EDGE_CURVE ( 'NONE', #77, #4, #176, .T. ) ;
#200 = EDGE_CURVE ( 'NONE', #23, #179, #115, .T. ) ;
#201 = PRODUCT_DEFINITION_FORMATION_WITH_SPECIFIED_SOURCE ( 'ANY', '', #44, .NOT_KNOWN. ) ;
#202 = VERTEX_POINT ( 'NONE', #132 ) ;
#203 = AXIS2_PLACEMENT_3D ( 'NONE', #79, #165, #147 ) ;
#204 = CARTESIAN_POINT ( 'NONE',  ( 0.000000000000000000, 0.000000000000000000, 60.00000000000000000 ) ) ;
#205 = MANIFOLD_SOLID_BREP ( 'Boss-Extrude1', #13 ) ;
#206 = ORIENTED_EDGE ( 'NONE', *, *, #184, .F. ) ;
#207 = FACE_OUTER_BOUND ( 'NONE', #47, .T. ) ;
#208 = ORIENTED_EDGE ( 'NONE', *, *, #200, .F. ) ;
#209 = APPLICATION_PROTOCOL_DEFINITION ( 'draft international standard', 'automotive_design', 1998, #151 ) ;
#210 = DIRECTION ( 'NONE',  ( -0.000000000000000000, -0.000000000000000000, -1.000000000000000000 ) ) ;
#211 = SURFACE_SIDE_STYLE ('',( #195 ) ) ;
#212 = DIRECTION ( 'NONE',  ( -0.000000000000000000, -0.000000000000000000, -1.000000000000000000 ) ) ;
#213 = FACE_OUTER_BOUND ( 'NONE', #140, .T. ) ;
#214 = LINE ( 'NONE', #30, #123 ) ;
#215 = DIRECTION ( 'NONE',  ( 1.000000000000000000, 0.000000000000000000, 0.000000000000000000 ) ) ;
#216 = ORIENTED_EDGE ( 'NONE', *, *, #43, .T. ) ;
#217 = AXIS2_PLACEMENT_3D ( 'NONE', #190, #67, #137 ) ;
#218 = UNCERTAINTY_MEASURE_WITH_UNIT (LENGTH_MEASURE( 1.000000000000000082E-05 ), #76, 'distance_accuracy_value', 'NONE');
#219 = CARTESIAN_POINT ( 'NONE',  ( -0.4400000000000001132, 0.000000000000000000, 60.00000000000000000 ) ) ;
#220 = PRODUCT_DEFINITION_SHAPE ( 'NONE', 'NONE',  #36 ) ;
#221 = FACE_BOUND ( 'NONE', #164, .T. ) ;
#222 = EDGE_CURVE ( 'NONE', #4, #77, #130, .T. ) ;
#223 =( LENGTH_UNIT ( ) NAMED_UNIT ( * ) SI_UNIT ( $, .METRE. ) );
ENDSEC;
END-ISO-10303-21;
