ISO-10303-21;
HEADER;
FILE_DESCRIPTION (( 'STEP AP214' ),
    '1' );
FILE_NAME ('736000.STEP',
    '2024-01-01T09:00:54',
    ( '' ),
    ( '' ),
    'SwSTEP 2.0',
    'SolidWorks 2022',
    '' );
FILE_SCHEMA (( 'AUTOMOTIVE_DESIGN' ));
ENDSEC;

DATA;
#1 = EDGE_CURVE ( 'NONE', #208, #300, #248, .T. ) ;
#2 = MECHANICAL_DESIGN_GEOMETRIC_PRESENTATION_REPRESENTATION (  '', ( #294 ), #204 ) ;
#3 = ORIENTED_EDGE ( 'NONE', *, *, #191, .T. ) ;
#4 = EDGE_LOOP ( 'NONE', ( #296, #24, #79, #16 ) ) ;
#5 = EDGE_CURVE ( 'NONE', #141, #233, #11, .T. ) ;
#6 = DIRECTION ( 'NONE',  ( -0.000000000000000000, 1.000000000000000000, -0.000000000000000000 ) ) ;
#7 = AXIS2_PLACEMENT_3D ( 'NONE', #344, #378, #136 ) ;
#8 = CYLINDRICAL_SURFACE ( 'NONE', #46, 0.3380000000000000782 ) ;
#9 =( GEOMETRIC_REPRESENTATION_CONTEXT ( 3 ) GLOBAL_UNCERTAINTY_ASSIGNED_CONTEXT ( ( #321 ) ) GLOBAL_UNIT_ASSIGNED_CONTEXT ( ( #390, #361, #96 ) ) REPRESENTATION_CONTEXT ( 'NONE', 'WORKASPACE' ) );
#10 = DIRECTION ( 'NONE',  ( 0.000000000000000000, -0.000000000000000000, -1.000000000000000000 ) ) ;
#11 = LINE ( 'NONE', #230, #385 ) ;
#12 = FACE_OUTER_BOUND ( 'NONE', #332, .T. ) ;
#13 = CIRCLE ( 'NONE', #224, 0.2499999999999999167 ) ;
#14 = FILL_AREA_STYLE ('',( #209 ) ) ;
#15 = ADVANCED_FACE ( 'NONE', ( #35, #291 ), #43, .F. ) ;
#16 = ORIENTED_EDGE ( 'NONE', *, *, #265, .F. ) ;
#17 = FILL_AREA_STYLE_COLOUR ( '', #138 ) ;
#18 = DIRECTION ( 'NONE',  ( -0.000000000000000000, 1.000000000000000000, -0.000000000000000000 ) ) ;
#19 = ORIENTED_EDGE ( 'NONE', *, *, #63, .F. ) ;
#20 = AXIS2_PLACEMENT_3D ( 'NONE', #235, #306, #400 ) ;
#21 = CARTESIAN_POINT ( 'NONE',  ( 0.000000000000000000, -1.250000000000000000, 0.000000000000000000 ) ) ;
#22 = FACE_OUTER_BOUND ( 'NONE', #189, .T. ) ;
#23 = PRODUCT_RELATED_PRODUCT_CATEGORY ( 'part', '', ( #373 ) ) ;
#24 = ORIENTED_EDGE ( 'NONE', *, *, #327, .T. ) ;
#25 = CARTESIAN_POINT ( 'NONE',  ( 0.000000000000000000, 0.000000000000000000, 0.000000000000000000 ) ) ;
#26 = DIRECTION ( 'NONE',  ( -0.000000000000000000, 1.000000000000000000, -0.000000000000000000 ) ) ;
#27 = CARTESIAN_POINT ( 'NONE',  ( 0.000000000000000000, 0.000000000000000000, 0.5899999999999999689 ) ) ;
#28 = DIMENSIONAL_EXPONENTS ( 1.000000000000000000, 0.000000000000000000, 0.000000000000000000, 0.000000000000000000, 0.000000000000000000, 0.000000000000000000, 0.000000000000000000 ) ;
#29 = PRESENTATION_LAYER_ASSIGNMENT (  '', '', ( #368 ) ) ;
#30 = ORIENTED_EDGE ( 'NONE', *, *, #66, .T. ) ;
#31 = CIRCLE ( 'NONE', #87, 0.3380000000000000782 ) ;
#32 = ORIENTED_EDGE ( 'NONE', *, *, #1, .T. ) ;
#33 = EDGE_CURVE ( 'NONE', #210, #152, #163, .T. ) ;
#34 = CARTESIAN_POINT ( 'NONE',  ( 2.296212748401288034E-17, 0.000000000000000000, -0.1875000000000000555 ) ) ;
#35 = FACE_BOUND ( 'NONE', #55, .T. ) ;
#36 = AXIS2_PLACEMENT_3D ( 'NONE', #167, #328, #333 ) ;
#37 = DIRECTION ( 'NONE',  ( 0.000000000000000000, 0.000000000000000000, 1.000000000000000000 ) ) ;
#38 = PRESENTATION_LAYER_ASSIGNMENT (  '', '', ( #294 ) ) ;
#39 = EDGE_LOOP ( 'NONE', ( #88, #274 ) ) ;
#40 = CARTESIAN_POINT ( 'NONE',  ( 0.000000000000000000, -0.1079999999999999988, 0.000000000000000000 ) ) ;
#41 = EDGE_CURVE ( 'NONE', #359, #337, #31, .T. ) ;
#42 = PRODUCT_DEFINITION_CONTEXT ( 'detailed design', #298, 'design' ) ;
#43 = PLANE ( 'NONE',  #7 ) ;
#44 = EDGE_LOOP ( 'NONE', ( #117, #32 ) ) ;
#45 = DIRECTION ( 'NONE',  ( 0.000000000000000000, 0.000000000000000000, 1.000000000000000000 ) ) ;
#46 = AXIS2_PLACEMENT_3D ( 'NONE', #71, #164, #285 ) ;
#47 = AXIS2_PLACEMENT_3D ( 'NONE', #21, #308, #207 ) ;
#48 = EDGE_CURVE ( 'NONE', #141, #221, #13, .T. ) ;
#49 =( NAMED_UNIT ( * ) SI_UNIT ( $, .STERADIAN. ) SOLID_ANGLE_UNIT ( ) );
#50 =( LENGTH_UNIT ( ) NAMED_UNIT ( * ) SI_UNIT ( $, .METRE. ) );
#51 = CYLINDRICAL_SURFACE ( 'NONE', #280, 0.5899999999999999689 ) ;
#52 = DIRECTION ( 'NONE',  ( -0.000000000000000000, 1.000000000000000000, -0.000000000000000000 ) ) ;
#53 = ORIENTED_EDGE ( 'NONE', *, *, #236, .T. ) ;
#54 = CARTESIAN_POINT ( 'NONE',  ( 0.000000000000000000, -0.1991027254265793911, 0.000000000000000000 ) ) ;
#55 = EDGE_LOOP ( 'NONE', ( #158, #363 ) ) ;
#56 = DIRECTION ( 'NONE',  ( 0.000000000000000000, 0.000000000000000000, 1.000000000000000000 ) ) ;
#57 = ORIENTED_EDGE ( 'NONE', *, *, #145, .T. ) ;
#58 = FACE_OUTER_BOUND ( 'NONE', #59, .T. ) ;
#59 = EDGE_LOOP ( 'NONE', ( #310, #245, #350, #377 ) ) ;
#60 = LINE ( 'NONE', #187, #343 ) ;
#61 = CLOSED_SHELL ( 'NONE', ( #293, #330, #251, #220, #186, #95, #15, #381, #311, #206, #140, #318, #86 ) ) ;
#62 = CIRCLE ( 'NONE', #272, 0.1875000000000000555 ) ;
#63 = EDGE_CURVE ( 'NONE', #83, #233, #402, .T. ) ;
#64 = ORIENTED_EDGE ( 'NONE', *, *, #172, .T. ) ;
#65 = DIRECTION ( 'NONE',  ( -0.000000000000000000, 1.000000000000000000, -0.000000000000000000 ) ) ;
#66 = EDGE_CURVE ( 'NONE', #221, #83, #134, .T. ) ;
#67 = DIRECTION ( 'NONE',  ( 0.000000000000000000, 0.000000000000000000, 1.000000000000000000 ) ) ;
#68 = DIRECTION ( 'NONE',  ( -0.000000000000000000, 1.000000000000000000, -0.000000000000000000 ) ) ;
#69 = CARTESIAN_POINT ( 'NONE',  ( 0.000000000000000000, 0.000000000000000000, 0.2500000000000000000 ) ) ;
#70 = ORIENTED_EDGE ( 'NONE', *, *, #99, .F. ) ;
#71 = CARTESIAN_POINT ( 'NONE',  ( 0.000000000000000000, 0.000000000000000000, 0.000000000000000000 ) ) ;
#72 = CARTESIAN_POINT ( 'NONE',  ( 0.000000000000000000, -0.1991027254265793911, 0.000000000000000000 ) ) ;
#73 = EDGE_CURVE ( 'NONE', #146, #141, #351, .T. ) ;
#74 = CARTESIAN_POINT ( 'NONE',  ( 0.000000000000000000, 0.000000000000000000, 0.000000000000000000 ) ) ;
#75 = CARTESIAN_POINT ( 'NONE',  ( 7.225416114969383947E-17, 0.000000000000000000, -0.5899999999999999689 ) ) ;
#76 = AXIS2_PLACEMENT_3D ( 'NONE', #190, #223, #10 ) ;
#77 = DIRECTION ( 'NONE',  ( 0.000000000000000000, 0.000000000000000000, 1.000000000000000000 ) ) ;
#78 = SURFACE_STYLE_USAGE ( .BOTH. , #299 ) ;
#79 = ORIENTED_EDGE ( 'NONE', *, *, #120, .T. ) ;
#80 = LENGTH_MEASURE_WITH_UNIT ( LENGTH_MEASURE( 0.02539999999999999897 ), #364 );
#81 = PRODUCT_DEFINITION ( 'UNKNOWN', '', #116, #42 ) ;
#82 = DIRECTION ( 'NONE',  ( -0.000000000000000000, 1.000000000000000000, -0.000000000000000000 ) ) ;
#83 = VERTEX_POINT ( 'NONE', #260 ) ;
#84 = DIRECTION ( 'NONE',  ( -0.000000000000000000, 1.000000000000000000, -0.000000000000000000 ) ) ;
#85 = CARTESIAN_POINT ( 'NONE',  ( 7.225416114969383947E-17, 0.000000000000000000, -0.5899999999999999689 ) ) ;
#86 = ADVANCED_FACE ( 'NONE', ( #255, #323 ), #289, .F. ) ;
#87 = AXIS2_PLACEMENT_3D ( 'NONE', #383, #228, #342 ) ;
#88 = ORIENTED_EDGE ( 'NONE', *, *, #370, .F. ) ;
#89 =( GEOMETRIC_REPRESENTATION_CONTEXT ( 3 ) GLOBAL_UNCERTAINTY_ASSIGNED_CONTEXT ( ( #229 ) ) GLOBAL_UNIT_ASSIGNED_CONTEXT ( ( #237, #264, #49 ) ) REPRESENTATION_CONTEXT ( 'NONE', 'WORKASPACE' ) );
#90 = DIRECTION ( 'NONE',  ( -0.000000000000000000, 1.000000000000000000, -0.000000000000000000 ) ) ;
#91 = DIRECTION ( 'NONE',  ( 0.000000000000000000, 0.000000000000000000, 1.000000000000000000 ) ) ;
#92 = VERTEX_POINT ( 'NONE', #159 ) ;
#93 = DIMENSIONAL_EXPONENTS ( 1.000000000000000000, 0.000000000000000000, 0.000000000000000000, 0.000000000000000000, 0.000000000000000000, 0.000000000000000000, 0.000000000000000000 ) ;
#94 = DIRECTION ( 'NONE',  ( -0.000000000000000000, 1.000000000000000000, -0.000000000000000000 ) ) ;
#95 = ADVANCED_FACE ( 'NONE', ( #259 ), #8, .F. ) ;
#96 =( NAMED_UNIT ( * ) SI_UNIT ( $, .STERADIAN. ) SOLID_ANGLE_UNIT ( ) );
#97 = AXIS2_PLACEMENT_3D ( 'NONE', #309, #94, #217 ) ;
#98 = DIRECTION ( 'NONE',  ( 1.000000000000000000, 0.000000000000000000, 0.000000000000000000 ) ) ;
#99 = EDGE_CURVE ( 'NONE', #233, #83, #292, .T. ) ;
#100 = VERTEX_POINT ( 'NONE', #199 ) ;
#101 = DIRECTION ( 'NONE',  ( 1.182917971378671814E-16, 0.2588190451025145222, -0.9659258262890699775 ) ) ;
#102 = AXIS2_PLACEMENT_3D ( 'NONE', #72, #362, #45 ) ;
#103 = DIRECTION ( 'NONE',  ( -0.000000000000000000, 1.000000000000000000, 0.000000000000000000 ) ) ;
#104 = FACE_OUTER_BOUND ( 'NONE', #39, .T. ) ;
#105 = EDGE_CURVE ( 'NONE', #92, #202, #374, .T. ) ;
#106 = DIRECTION ( 'NONE',  ( -0.000000000000000000, 1.000000000000000000, -0.000000000000000000 ) ) ;
#107 = UNCERTAINTY_MEASURE_WITH_UNIT (LENGTH_MEASURE( 1.000000000000000082E-05 ), #391, 'distance_accuracy_value', 'NONE');
#108 = DIRECTION ( 'NONE',  ( 0.000000000000000000, 0.000000000000000000, 1.000000000000000000 ) ) ;
#109 = CONICAL_SURFACE ( 'NONE', #279, 0.2499999999999999167, 1.308996938995753645 ) ;
#110 = DIRECTION ( 'NONE',  ( 0.000000000000000000, 0.000000000000000000, 1.000000000000000000 ) ) ;
#111 = ORIENTED_EDGE ( 'NONE', *, *, #48, .F. ) ;
#112 = CARTESIAN_POINT ( 'NONE',  ( 3.061616997868383634E-17, -1.250000000000000000, -0.2500000000000000555 ) ) ;
#113 = ORIENTED_EDGE ( 'NONE', *, *, #105, .T. ) ;
#114 = DIRECTION ( 'NONE',  ( -0.000000000000000000, 1.000000000000000000, -0.000000000000000000 ) ) ;
#115 = AXIS2_PLACEMENT_3D ( 'NONE', #170, #122, #240 ) ;
#116 = PRODUCT_DEFINITION_FORMATION_WITH_SPECIFIED_SOURCE ( 'ANY', '', #373, .NOT_KNOWN. ) ;
#117 = ORIENTED_EDGE ( 'NONE', *, *, #345, .T. ) ;
#118 = CARTESIAN_POINT ( 'NONE',  ( 0.000000000000000000, -0.1000000000000000056, 0.000000000000000000 ) ) ;
#119 = ORIENTED_EDGE ( 'NONE', *, *, #191, .F. ) ;
#120 = EDGE_CURVE ( 'NONE', #202, #92, #238, .T. ) ;
#121 = FACE_OUTER_BOUND ( 'NONE', #213, .T. ) ;
#122 = DIRECTION ( 'NONE',  ( -0.000000000000000000, 1.000000000000000000, -0.000000000000000000 ) ) ;
#123 = ORIENTED_EDGE ( 'NONE', *, *, #392, .F. ) ;
#124 = SURFACE_STYLE_FILL_AREA ( #270 ) ;
#125 = EDGE_LOOP ( 'NONE', ( #123, #53, #185, #182 ) ) ;
#126 = DIRECTION ( 'NONE',  ( -0.000000000000000000, 1.000000000000000000, -0.000000000000000000 ) ) ;
#127 = DIRECTION ( 'NONE',  ( 0.000000000000000000, 0.000000000000000000, 1.000000000000000000 ) ) ;
#128 = AXIS2_PLACEMENT_3D ( 'NONE', #247, #126, #91 ) ;
#129 = EDGE_LOOP ( 'NONE', ( #231, #282, #179, #57 ) ) ;
#130 = CARTESIAN_POINT ( 'NONE',  ( 0.000000000000000000, -0.1079999999999999988, 0.000000000000000000 ) ) ;
#131 = CARTESIAN_POINT ( 'NONE',  ( 0.000000000000000000, 0.000000000000000000, 0.000000000000000000 ) ) ;
#132 = CIRCLE ( 'NONE', #115, 0.3380000000000000782 ) ;
#133 = CIRCLE ( 'NONE', #226, 0.5899999999999999689 ) ;
#134 = LINE ( 'NONE', #192, #315 ) ;
#135 = FACE_BOUND ( 'NONE', #253, .T. ) ;
#136 = DIRECTION ( 'NONE',  ( 0.000000000000000000, -0.000000000000000000, -1.000000000000000000 ) ) ;
#137 = DIRECTION ( 'NONE',  ( -0.000000000000000000, 1.000000000000000000, -0.000000000000000000 ) ) ;
#138 = COLOUR_RGB ( '',0.6470588235294117974, 0.6196078431372549211, 0.5882352941176470784 ) ;
#139 = PRESENTATION_STYLE_ASSIGNMENT (( #78 ) ) ;
#140 = ADVANCED_FACE ( 'NONE', ( #104, #135 ), #256, .F. ) ;
#141 = VERTEX_POINT ( 'NONE', #319 ) ;
#142 = FACE_OUTER_BOUND ( 'NONE', #200, .T. ) ;
#143 = DIRECTION ( 'NONE',  ( -0.000000000000000000, 1.000000000000000000, -0.000000000000000000 ) ) ;
#144 = AXIS2_PLACEMENT_3D ( 'NONE', #273, #398, #388 ) ;
#145 = EDGE_CURVE ( 'NONE', #100, #152, #194, .T. ) ;
#146 = VERTEX_POINT ( 'NONE', #160 ) ;
#147 = LINE ( 'NONE', #211, #375 ) ;
#148 = CARTESIAN_POINT ( 'NONE',  ( 0.000000000000000000, 0.000000000000000000, 0.000000000000000000 ) ) ;
#149 = PRODUCT_DEFINITION_SHAPE ( 'NONE', 'NONE',  #81 ) ;
#150 = ORIENTED_EDGE ( 'NONE', *, *, #73, .F. ) ;
#151 = CYLINDRICAL_SURFACE ( 'NONE', #340, 0.1875000000000000555 ) ;
#152 = VERTEX_POINT ( 'NONE', #286 ) ;
#153 = APPLICATION_PROTOCOL_DEFINITION ( 'draft international standard', 'automotive_design', 1998, #298 ) ;
#154 = FACE_OUTER_BOUND ( 'NONE', #250, .T. ) ;
#155 = EDGE_CURVE ( 'NONE', #337, #359, #132, .T. ) ;
#156 = ORIENTED_EDGE ( 'NONE', *, *, #392, .T. ) ;
#157 = CONICAL_SURFACE ( 'NONE', #128, 0.2499999999999999167, 1.308996938995753645 ) ;
#158 = ORIENTED_EDGE ( 'NONE', *, *, #105, .F. ) ;
#159 = CARTESIAN_POINT ( 'NONE',  ( 0.000000000000000000, 0.000000000000000000, 0.3380000000000000782 ) ) ;
#160 = CARTESIAN_POINT ( 'NONE',  ( 0.000000000000000000, -1.250000000000000000, 0.2500000000000000555 ) ) ;
#161 = VECTOR ( 'NONE', #18, 39.37007874015748143 ) ;
#162 = CIRCLE ( 'NONE', #20, 0.1875000000000000555 ) ;
#163 = LINE ( 'NONE', #34, #379 ) ;
#164 = DIRECTION ( 'NONE',  ( -0.000000000000000000, 1.000000000000000000, -0.000000000000000000 ) ) ;
#165 = DIRECTION ( 'NONE',  ( -0.000000000000000000, 1.000000000000000000, -0.000000000000000000 ) ) ;
#166 = ORIENTED_EDGE ( 'NONE', *, *, #254, .F. ) ;
#167 = CARTESIAN_POINT ( 'NONE',  ( 0.000000000000000000, 0.000000000000000000, 0.000000000000000000 ) ) ;
#168 = ORIENTED_EDGE ( 'NONE', *, *, #172, .F. ) ;
#169 = DIRECTION ( 'NONE',  ( -0.000000000000000000, 1.000000000000000000, -0.000000000000000000 ) ) ;
#170 = CARTESIAN_POINT ( 'NONE',  ( 0.000000000000000000, -0.1000000000000000056, 0.000000000000000000 ) ) ;
#171 = APPLICATION_PROTOCOL_DEFINITION ( 'draft international standard', 'automotive_design', 1998, #395 ) ;
#172 = EDGE_CURVE ( 'NONE', #233, #300, #244, .T. ) ;
#173 = LINE ( 'NONE', #295, #219 ) ;
#174 = EDGE_LOOP ( 'NONE', ( #278, #166 ) ) ;
#175 = CARTESIAN_POINT ( 'NONE',  ( 0.000000000000000000, 0.000000000000000000, 0.000000000000000000 ) ) ;
#176 = CARTESIAN_POINT ( 'NONE',  ( 0.000000000000000000, -0.1079999999999999988, 0.5899999999999999689 ) ) ;
#177 = AXIS2_PLACEMENT_3D ( 'NONE', #346, #165, #382 ) ;
#178 = AXIS2_PLACEMENT_3D ( 'NONE', #394, #52, #303 ) ;
#179 = ORIENTED_EDGE ( 'NONE', *, *, #196, .T. ) ;
#180 = DIRECTION ( 'NONE',  ( 0.000000000000000000, 0.000000000000000000, 1.000000000000000000 ) ) ;
#181 = LINE ( 'NONE', #75, #218 ) ;
#182 = ORIENTED_EDGE ( 'NONE', *, *, #257, .F. ) ;
#183 = DIRECTION ( 'NONE',  ( -0.000000000000000000, 1.000000000000000000, -0.000000000000000000 ) ) ;
#184 = FACE_OUTER_BOUND ( 'NONE', #129, .T. ) ;
#185 = ORIENTED_EDGE ( 'NONE', *, *, #73, .T. ) ;
#186 = ADVANCED_FACE ( 'NONE', ( #242 ), #354, .F. ) ;
#187 = CARTESIAN_POINT ( 'NONE',  ( 4.139306181118054535E-17, 0.000000000000000000, -0.3380000000000000782 ) ) ;
#188 = SHAPE_DEFINITION_REPRESENTATION ( #149, #305 ) ;
#189 = EDGE_LOOP ( 'NONE', ( #314, #3, #396, #168 ) ) ;
#190 = CARTESIAN_POINT ( 'NONE',  ( 0.1875000000000000555, -0.1000000000000000056, 0.000000000000000000 ) ) ;
#191 = EDGE_CURVE ( 'NONE', #83, #208, #181, .T. ) ;
#192 = CARTESIAN_POINT ( 'NONE',  ( 3.061616997868382402E-17, -0.1991027254265793911, -0.2499999999999999167 ) ) ;
#193 = DIRECTION ( 'NONE',  ( -0.000000000000000000, 1.000000000000000000, -0.000000000000000000 ) ) ;
#194 = CIRCLE ( 'NONE', #312, 0.1875000000000000555 ) ;
#195 = AXIS2_PLACEMENT_3D ( 'NONE', #301, #84, #393 ) ;
#196 = EDGE_CURVE ( 'NONE', #355, #100, #352, .T. ) ;
#197 = DIRECTION ( 'NONE',  ( 0.000000000000000000, 0.000000000000000000, 1.000000000000000000 ) ) ;
#198 = ORIENTED_EDGE ( 'NONE', *, *, #265, .T. ) ;
#199 = CARTESIAN_POINT ( 'NONE',  ( 0.000000000000000000, -0.1000000000000000056, 0.1875000000000000555 ) ) ;
#200 = EDGE_LOOP ( 'NONE', ( #119, #266, #64, #243 ) ) ;
#201 = DIRECTION ( 'NONE',  ( -0.000000000000000000, 1.000000000000000000, -0.000000000000000000 ) ) ;
#202 = VERTEX_POINT ( 'NONE', #297 ) ;
#203 = CARTESIAN_POINT ( 'NONE',  ( 0.000000000000000000, -0.1000000000000000056, 0.3380000000000000782 ) ) ;
#204 =( GEOMETRIC_REPRESENTATION_CONTEXT ( 3 ) GLOBAL_UNCERTAINTY_ASSIGNED_CONTEXT ( ( #107 ) ) GLOBAL_UNIT_ASSIGNED_CONTEXT ( ( #391, #215, #313 ) ) REPRESENTATION_CONTEXT ( 'NONE', 'WORKASPACE' ) );
#205 = DIRECTION ( 'NONE',  ( 0.000000000000000000, 0.000000000000000000, 1.000000000000000000 ) ) ;
#206 = ADVANCED_FACE ( 'NONE', ( #331 ), #212, .T. ) ;
#207 = DIRECTION ( 'NONE',  ( 0.000000000000000000, 0.000000000000000000, 1.000000000000000000 ) ) ;
#208 = VERTEX_POINT ( 'NONE', #85 ) ;
#209 = FILL_AREA_STYLE_COLOUR ( '', #349 ) ;
#210 = VERTEX_POINT ( 'NONE', #263 ) ;
#211 = CARTESIAN_POINT ( 'NONE',  ( 3.061616997868383018E-17, 0.000000000000000000, -0.2500000000000000000 ) ) ;
#212 = CYLINDRICAL_SURFACE ( 'NONE', #144, 0.2500000000000000000 ) ;
#213 = EDGE_LOOP ( 'NONE', ( #283, #156, #111, #150 ) ) ;
#214 = SURFACE_STYLE_USAGE ( .BOTH. , #246 ) ;
#215 =( NAMED_UNIT ( * ) PLANE_ANGLE_UNIT ( ) SI_UNIT ( $, .RADIAN. ) );
#216 = EDGE_LOOP ( 'NONE', ( #389, #329 ) ) ;
#217 = DIRECTION ( 'NONE',  ( 0.000000000000000000, 0.000000000000000000, 1.000000000000000000 ) ) ;
#218 = VECTOR ( 'NONE', #201, 39.37007874015748143 ) ;
#219 = VECTOR ( 'NONE', #82, 39.37007874015748143 ) ;
#220 = ADVANCED_FACE ( 'NONE', ( #22 ), #234, .T. ) ;
#221 = VERTEX_POINT ( 'NONE', #276 ) ;
#222 = PRODUCT_CONTEXT ( 'NONE', #395, 'mechanical' ) ;
#223 = DIRECTION ( 'NONE',  ( 0.000000000000000000, -1.000000000000000000, 0.000000000000000000 ) ) ;
#224 = AXIS2_PLACEMENT_3D ( 'NONE', #384, #106, #108 ) ;
#225 = AXIS2_PLACEMENT_3D ( 'NONE', #322, #103, #197 ) ;
#226 = AXIS2_PLACEMENT_3D ( 'NONE', #175, #183, #77 ) ;
#227 = DIRECTION ( 'NONE',  ( -0.000000000000000000, 1.000000000000000000, -0.000000000000000000 ) ) ;
#228 = DIRECTION ( 'NONE',  ( -0.000000000000000000, 1.000000000000000000, -0.000000000000000000 ) ) ;
#229 = UNCERTAINTY_MEASURE_WITH_UNIT (LENGTH_MEASURE( 1.000000000000000082E-05 ), #237, 'distance_accuracy_value', 'NONE');
#230 = CARTESIAN_POINT ( 'NONE',  ( 0.000000000000000000, -0.1991027254265793911, 0.2499999999999999167 ) ) ;
#231 = ORIENTED_EDGE ( 'NONE', *, *, #33, .F. ) ;
#232 = DIRECTION ( 'NONE',  ( -0.000000000000000000, 1.000000000000000000, -0.000000000000000000 ) ) ;
#233 = VERTEX_POINT ( 'NONE', #176 ) ;
#234 = CYLINDRICAL_SURFACE ( 'NONE', #302, 0.5899999999999999689 ) ;
#235 = CARTESIAN_POINT ( 'NONE',  ( 0.000000000000000000, -1.250000000000000000, 0.000000000000000000 ) ) ;
#236 = EDGE_CURVE ( 'NONE', #261, #146, #252, .T. ) ;
#237 =( CONVERSION_BASED_UNIT ( 'INCH', #80 ) LENGTH_UNIT ( ) NAMED_UNIT ( #28 ) );
#238 = CIRCLE ( 'NONE', #287, 0.3380000000000000782 ) ;
#239 = AXIS2_PLACEMENT_3D ( 'NONE', #376, #127, #98 ) ;
#240 = DIRECTION ( 'NONE',  ( 0.000000000000000000, 0.000000000000000000, 1.000000000000000000 ) ) ;
#241 = ORIENTED_EDGE ( 'NONE', *, *, #5, .T. ) ;
#242 = FACE_OUTER_BOUND ( 'NONE', #4, .T. ) ;
#243 = ORIENTED_EDGE ( 'NONE', *, *, #1, .F. ) ;
#244 = LINE ( 'NONE', #365, #161 ) ;
#245 = ORIENTED_EDGE ( 'NONE', *, *, #33, .T. ) ;
#246 = SURFACE_SIDE_STYLE ('',( #124 ) ) ;
#247 = CARTESIAN_POINT ( 'NONE',  ( 0.000000000000000000, -0.1991027254265793911, 0.000000000000000000 ) ) ;
#248 = CIRCLE ( 'NONE', #258, 0.5899999999999999689 ) ;
#249 = CIRCLE ( 'NONE', #102, 0.2499999999999999167 ) ;
#250 = EDGE_LOOP ( 'NONE', ( #401, #307, #241, #19 ) ) ;
#251 = ADVANCED_FACE ( 'NONE', ( #12 ), #109, .T. ) ;
#252 = CIRCLE ( 'NONE', #178, 0.2500000000000000555 ) ;
#253 = EDGE_LOOP ( 'NONE', ( #341, #399 ) ) ;
#254 = EDGE_CURVE ( 'NONE', #152, #100, #62, .T. ) ;
#255 = FACE_BOUND ( 'NONE', #174, .T. ) ;
#256 = PLANE ( 'NONE',  #225 ) ;
#257 = EDGE_CURVE ( 'NONE', #221, #141, #249, .T. ) ;
#258 = AXIS2_PLACEMENT_3D ( 'NONE', #25, #227, #262 ) ;
#259 = FACE_OUTER_BOUND ( 'NONE', #371, .T. ) ;
#260 = CARTESIAN_POINT ( 'NONE',  ( 7.225416114969383947E-17, -0.1079999999999999988, -0.5899999999999999689 ) ) ;
#261 = VERTEX_POINT ( 'NONE', #112 ) ;
#262 = DIRECTION ( 'NONE',  ( 0.000000000000000000, 0.000000000000000000, 1.000000000000000000 ) ) ;
#263 = CARTESIAN_POINT ( 'NONE',  ( 2.296212748401288034E-17, -1.250000000000000000, -0.1875000000000000555 ) ) ;
#264 =( NAMED_UNIT ( * ) PLANE_ANGLE_UNIT ( ) SI_UNIT ( $, .RADIAN. ) );
#265 = EDGE_CURVE ( 'NONE', #359, #92, #173, .T. ) ;
#266 = ORIENTED_EDGE ( 'NONE', *, *, #63, .T. ) ;
#267 = MANIFOLD_SOLID_BREP ( 'Revolve1', #61 ) ;
#268 = LENGTH_MEASURE_WITH_UNIT ( LENGTH_MEASURE( 0.02539999999999999897 ), #335 );
#269 = LENGTH_MEASURE_WITH_UNIT ( LENGTH_MEASURE( 0.02539999999999999897 ), #50 );
#270 = FILL_AREA_STYLE ('',( #17 ) ) ;
#271 = VECTOR ( 'NONE', #143, 39.37007874015748143 ) ;
#272 = AXIS2_PLACEMENT_3D ( 'NONE', #118, #114, #205 ) ;
#273 = CARTESIAN_POINT ( 'NONE',  ( 0.000000000000000000, 0.000000000000000000, 0.000000000000000000 ) ) ;
#274 = ORIENTED_EDGE ( 'NONE', *, *, #236, .F. ) ;
#275 = CARTESIAN_POINT ( 'NONE',  ( 0.000000000000000000, -1.250000000000000000, 0.1875000000000000555 ) ) ;
#276 = CARTESIAN_POINT ( 'NONE',  ( 5.143516556418884407E-17, -0.1991027254265793911, -0.2499999999999999167 ) ) ;
#277 = ORIENTED_EDGE ( 'NONE', *, *, #41, .F. ) ;
#278 = ORIENTED_EDGE ( 'NONE', *, *, #145, .F. ) ;
#279 = AXIS2_PLACEMENT_3D ( 'NONE', #54, #137, #110 ) ;
#280 = AXIS2_PLACEMENT_3D ( 'NONE', #74, #353, #180 ) ;
#281 = EDGE_CURVE ( 'NONE', #210, #355, #162, .T. ) ;
#282 = ORIENTED_EDGE ( 'NONE', *, *, #360, .F. ) ;
#283 = ORIENTED_EDGE ( 'NONE', *, *, #370, .T. ) ;
#284 = DIMENSIONAL_EXPONENTS ( 1.000000000000000000, 0.000000000000000000, 0.000000000000000000, 0.000000000000000000, 0.000000000000000000, 0.000000000000000000, 0.000000000000000000 ) ;
#285 = DIRECTION ( 'NONE',  ( 0.000000000000000000, 0.000000000000000000, 1.000000000000000000 ) ) ;
#286 = CARTESIAN_POINT ( 'NONE',  ( 2.296212748401288034E-17, -0.1000000000000000056, -0.1875000000000000555 ) ) ;
#287 = AXIS2_PLACEMENT_3D ( 'NONE', #131, #68, #380 ) ;
#288 = AXIS2_PLACEMENT_3D ( 'NONE', #367, #26, #357 ) ;
#289 = PLANE ( 'NONE',  #76 ) ;
#290 = CARTESIAN_POINT ( 'NONE',  ( 0.000000000000000000, -0.1000000000000000056, 0.000000000000000000 ) ) ;
#291 = FACE_OUTER_BOUND ( 'NONE', #44, .T. ) ;
#292 = CIRCLE ( 'NONE', #403, 0.5899999999999999689 ) ;
#293 = ADVANCED_FACE ( 'NONE', ( #58 ), #151, .F. ) ;
#294 = STYLED_ITEM ( 'NONE', ( #139 ), #267 ) ;
#295 = CARTESIAN_POINT ( 'NONE',  ( 0.000000000000000000, 0.000000000000000000, 0.3380000000000000782 ) ) ;
#296 = ORIENTED_EDGE ( 'NONE', *, *, #155, .F. ) ;
#297 = CARTESIAN_POINT ( 'NONE',  ( 4.139306181118054535E-17, 0.000000000000000000, -0.3380000000000000782 ) ) ;
#298 = APPLICATION_CONTEXT ( 'automotive_design' ) ;
#299 = SURFACE_SIDE_STYLE ('',( #358 ) ) ;
#300 = VERTEX_POINT ( 'NONE', #27 ) ;
#301 = CARTESIAN_POINT ( 'NONE',  ( 0.000000000000000000, 0.000000000000000000, 0.000000000000000000 ) ) ;
#302 = AXIS2_PLACEMENT_3D ( 'NONE', #148, #386, #56 ) ;
#303 = DIRECTION ( 'NONE',  ( 0.000000000000000000, 0.000000000000000000, 1.000000000000000000 ) ) ;
#304 = ORIENTED_EDGE ( 'NONE', *, *, #48, .T. ) ;
#305 = ADVANCED_BREP_SHAPE_REPRESENTATION ( '736000', ( #267, #239 ), #89 ) ;
#306 = DIRECTION ( 'NONE',  ( -0.000000000000000000, 1.000000000000000000, -0.000000000000000000 ) ) ;
#307 = ORIENTED_EDGE ( 'NONE', *, *, #257, .T. ) ;
#308 = DIRECTION ( 'NONE',  ( -0.000000000000000000, 1.000000000000000000, -0.000000000000000000 ) ) ;
#309 = CARTESIAN_POINT ( 'NONE',  ( 0.000000000000000000, 0.000000000000000000, 0.000000000000000000 ) ) ;
#310 = ORIENTED_EDGE ( 'NONE', *, *, #281, .F. ) ;
#311 = ADVANCED_FACE ( 'NONE', ( #154 ), #157, .T. ) ;
#312 = AXIS2_PLACEMENT_3D ( 'NONE', #290, #317, #37 ) ;
#313 =( NAMED_UNIT ( * ) SI_UNIT ( $, .STERADIAN. ) SOLID_ANGLE_UNIT ( ) );
#314 = ORIENTED_EDGE ( 'NONE', *, *, #99, .T. ) ;
#315 = VECTOR ( 'NONE', #101, 39.37007874015748143 ) ;
#316 = DIRECTION ( 'NONE',  ( 0.000000000000000000, 0.2588190451025145222, 0.9659258262890699775 ) ) ;
#317 = DIRECTION ( 'NONE',  ( -0.000000000000000000, 1.000000000000000000, -0.000000000000000000 ) ) ;
#318 = ADVANCED_FACE ( 'NONE', ( #184 ), #372, .F. ) ;
#319 = CARTESIAN_POINT ( 'NONE',  ( 0.000000000000000000, -0.1991027254265793911, 0.2499999999999999167 ) ) ;
#320 = MECHANICAL_DESIGN_GEOMETRIC_PRESENTATION_REPRESENTATION (  '', ( #368 ), #9 ) ;
#321 = UNCERTAINTY_MEASURE_WITH_UNIT (LENGTH_MEASURE( 1.000000000000000082E-05 ), #390, 'distance_accuracy_value', 'NONE');
#322 = CARTESIAN_POINT ( 'NONE',  ( 0.2500000000000000555, -1.250000000000000000, 0.000000000000000000 ) ) ;
#323 = FACE_OUTER_BOUND ( 'NONE', #216, .T. ) ;
#324 = CARTESIAN_POINT ( 'NONE',  ( 0.000000000000000000, 0.000000000000000000, 0.1875000000000000555 ) ) ;
#325 = CIRCLE ( 'NONE', #288, 0.2500000000000000555 ) ;
#326 = CYLINDRICAL_SURFACE ( 'NONE', #195, 0.2500000000000000000 ) ;
#327 = EDGE_CURVE ( 'NONE', #337, #202, #60, .T. ) ;
#328 = DIRECTION ( 'NONE',  ( -0.000000000000000000, 1.000000000000000000, -0.000000000000000000 ) ) ;
#329 = ORIENTED_EDGE ( 'NONE', *, *, #155, .T. ) ;
#330 = ADVANCED_FACE ( 'NONE', ( #121 ), #326, .T. ) ;
#331 = FACE_OUTER_BOUND ( 'NONE', #125, .T. ) ;
#332 = EDGE_LOOP ( 'NONE', ( #304, #30, #70, #334 ) ) ;
#333 = DIRECTION ( 'NONE',  ( 0.000000000000000000, 0.000000000000000000, 1.000000000000000000 ) ) ;
#334 = ORIENTED_EDGE ( 'NONE', *, *, #5, .F. ) ;
#335 =( LENGTH_UNIT ( ) NAMED_UNIT ( * ) SI_UNIT ( $, .METRE. ) );
#336 = DIRECTION ( 'NONE',  ( -0.000000000000000000, 1.000000000000000000, -0.000000000000000000 ) ) ;
#337 = VERTEX_POINT ( 'NONE', #397 ) ;
#338 = DIRECTION ( 'NONE',  ( 0.000000000000000000, 0.000000000000000000, 1.000000000000000000 ) ) ;
#339 = AXIS2_PLACEMENT_3D ( 'NONE', #130, #232, #67 ) ;
#340 = AXIS2_PLACEMENT_3D ( 'NONE', #369, #336, #338 ) ;
#341 = ORIENTED_EDGE ( 'NONE', *, *, #360, .T. ) ;
#342 = DIRECTION ( 'NONE',  ( 0.000000000000000000, 0.000000000000000000, 1.000000000000000000 ) ) ;
#343 = VECTOR ( 'NONE', #169, 39.37007874015748143 ) ;
#344 = CARTESIAN_POINT ( 'NONE',  ( 0.3380000000000000782, 0.000000000000000000, 0.000000000000000000 ) ) ;
#345 = EDGE_CURVE ( 'NONE', #300, #208, #133, .T. ) ;
#346 = CARTESIAN_POINT ( 'NONE',  ( 0.000000000000000000, 0.000000000000000000, 0.000000000000000000 ) ) ;
#347 = DIRECTION ( 'NONE',  ( 0.000000000000000000, 0.000000000000000000, 1.000000000000000000 ) ) ;
#348 = VECTOR ( 'NONE', #193, 39.37007874015748143 ) ;
#349 = COLOUR_RGB ( '',0.6470588235294117974, 0.6196078431372549211, 0.5882352941176470784 ) ;
#350 = ORIENTED_EDGE ( 'NONE', *, *, #254, .T. ) ;
#351 = LINE ( 'NONE', #69, #348 ) ;
#352 = LINE ( 'NONE', #324, #271 ) ;
#353 = DIRECTION ( 'NONE',  ( -0.000000000000000000, 1.000000000000000000, -0.000000000000000000 ) ) ;
#354 = CYLINDRICAL_SURFACE ( 'NONE', #36, 0.3380000000000000782 ) ;
#355 = VERTEX_POINT ( 'NONE', #275 ) ;
#356 = CIRCLE ( 'NONE', #47, 0.1875000000000000555 ) ;
#357 = DIRECTION ( 'NONE',  ( 0.000000000000000000, 0.000000000000000000, 1.000000000000000000 ) ) ;
#358 = SURFACE_STYLE_FILL_AREA ( #14 ) ;
#359 = VERTEX_POINT ( 'NONE', #203 ) ;
#360 = EDGE_CURVE ( 'NONE', #355, #210, #356, .T. ) ;
#361 =( NAMED_UNIT ( * ) PLANE_ANGLE_UNIT ( ) SI_UNIT ( $, .RADIAN. ) );
#362 = DIRECTION ( 'NONE',  ( -0.000000000000000000, 1.000000000000000000, -0.000000000000000000 ) ) ;
#363 = ORIENTED_EDGE ( 'NONE', *, *, #120, .F. ) ;
#364 =( LENGTH_UNIT ( ) NAMED_UNIT ( * ) SI_UNIT ( $, .METRE. ) );
#365 = CARTESIAN_POINT ( 'NONE',  ( 0.000000000000000000, 0.000000000000000000, 0.5899999999999999689 ) ) ;
#366 = ORIENTED_EDGE ( 'NONE', *, *, #327, .F. ) ;
#367 = CARTESIAN_POINT ( 'NONE',  ( 0.000000000000000000, -1.250000000000000000, 0.000000000000000000 ) ) ;
#368 = STYLED_ITEM ( 'NONE', ( #387 ), #305 ) ;
#369 = CARTESIAN_POINT ( 'NONE',  ( 0.000000000000000000, 0.000000000000000000, 0.000000000000000000 ) ) ;
#370 = EDGE_CURVE ( 'NONE', #146, #261, #325, .T. ) ;
#371 = EDGE_LOOP ( 'NONE', ( #366, #277, #198, #113 ) ) ;
#372 = CYLINDRICAL_SURFACE ( 'NONE', #97, 0.1875000000000000555 ) ;
#373 = PRODUCT ( '736000', '736000', '', ( #222 ) ) ;
#374 = CIRCLE ( 'NONE', #177, 0.3380000000000000782 ) ;
#375 = VECTOR ( 'NONE', #90, 39.37007874015748143 ) ;
#376 = CARTESIAN_POINT ( 'NONE',  ( 0.000000000000000000, 0.000000000000000000, 0.000000000000000000 ) ) ;
#377 = ORIENTED_EDGE ( 'NONE', *, *, #196, .F. ) ;
#378 = DIRECTION ( 'NONE',  ( 0.000000000000000000, -1.000000000000000000, 0.000000000000000000 ) ) ;
#379 = VECTOR ( 'NONE', #65, 39.37007874015748143 ) ;
#380 = DIRECTION ( 'NONE',  ( 0.000000000000000000, 0.000000000000000000, 1.000000000000000000 ) ) ;
#381 = ADVANCED_FACE ( 'NONE', ( #142 ), #51, .T. ) ;
#382 = DIRECTION ( 'NONE',  ( 0.000000000000000000, 0.000000000000000000, 1.000000000000000000 ) ) ;
#383 = CARTESIAN_POINT ( 'NONE',  ( 0.000000000000000000, -0.1000000000000000056, 0.000000000000000000 ) ) ;
#384 = CARTESIAN_POINT ( 'NONE',  ( 0.000000000000000000, -0.1991027254265793911, 0.000000000000000000 ) ) ;
#385 = VECTOR ( 'NONE', #316, 39.37007874015748143 ) ;
#386 = DIRECTION ( 'NONE',  ( -0.000000000000000000, 1.000000000000000000, -0.000000000000000000 ) ) ;
#387 = PRESENTATION_STYLE_ASSIGNMENT (( #214 ) ) ;
#388 = DIRECTION ( 'NONE',  ( 0.000000000000000000, 0.000000000000000000, 1.000000000000000000 ) ) ;
#389 = ORIENTED_EDGE ( 'NONE', *, *, #41, .T. ) ;
#390 =( CONVERSION_BASED_UNIT ( 'INCH', #268 ) LENGTH_UNIT ( ) NAMED_UNIT ( #93 ) );
#391 =( CONVERSION_BASED_UNIT ( 'INCH', #269 ) LENGTH_UNIT ( ) NAMED_UNIT ( #284 ) );
#392 = EDGE_CURVE ( 'NONE', #261, #221, #147, .T. ) ;
#393 = DIRECTION ( 'NONE',  ( 0.000000000000000000, 0.000000000000000000, 1.000000000000000000 ) ) ;
#394 = CARTESIAN_POINT ( 'NONE',  ( 0.000000000000000000, -1.250000000000000000, 0.000000000000000000 ) ) ;
#395 = APPLICATION_CONTEXT ( 'automotive_design' ) ;
#396 = ORIENTED_EDGE ( 'NONE', *, *, #345, .F. ) ;
#397 = CARTESIAN_POINT ( 'NONE',  ( 4.139306181118054535E-17, -0.1000000000000000056, -0.3380000000000000782 ) ) ;
#398 = DIRECTION ( 'NONE',  ( -0.000000000000000000, 1.000000000000000000, -0.000000000000000000 ) ) ;
#399 = ORIENTED_EDGE ( 'NONE', *, *, #281, .T. ) ;
#400 = DIRECTION ( 'NONE',  ( 0.000000000000000000, 0.000000000000000000, 1.000000000000000000 ) ) ;
#401 = ORIENTED_EDGE ( 'NONE', *, *, #66, .F. ) ;
#402 = CIRCLE ( 'NONE', #339, 0.5899999999999999689 ) ;
#403 = AXIS2_PLACEMENT_3D ( 'NONE', #40, #6, #347 ) ;
ENDSEC;
END-ISO-10303-21;
