ISO-10303-21;
HEADER;
FILE_DESCRIPTION (( 'STEP AP214' ),
    '1' );
FILE_NAME ('736001.STEP',
    '2023-12-30T12:29:49',
    ( '' ),
    ( '' ),
    'SwSTEP 2.0',
    'SolidWorks 2022',
    '' );
FILE_SCHEMA (( 'AUTOMOTIVE_DESIGN' ));
ENDSEC;

DATA;
#1 = DIRECTION ( 'NONE',  ( 1.000000000000000000, 0.000000000000000000, 0.000000000000000000 ) ) ;
#2 = CARTESIAN_POINT ( 'NONE',  ( 0.000000000000000000, 0.000000000000000000, 0.000000000000000000 ) ) ;
#3 = CIRCLE ( 'NONE', #158, 0.3425000000000000266 ) ;
#4 = CARTESIAN_POINT ( 'NONE',  ( 0.000000000000000000, -1.250000000000000000, 0.3125000000000000555 ) ) ;
#5 = AXIS2_PLACEMENT_3D ( 'NONE', #358, #387, #80 ) ;
#6 = DIRECTION ( 'NONE',  ( -0.000000000000000000, 1.000000000000000000, -0.000000000000000000 ) ) ;
#7 = VERTEX_POINT ( 'NONE', #269 ) ;
#8 = ORIENTED_EDGE ( 'NONE', *, *, #118, .F. ) ;
#9 = ORIENTED_EDGE ( 'NONE', *, *, #400, .F. ) ;
#10 = ORIENTED_EDGE ( 'NONE', *, *, #206, .T. ) ;
#11 = EDGE_CURVE ( 'NONE', #7, #229, #318, .T. ) ;
#12 = DIRECTION ( 'NONE',  ( 0.000000000000000000, 0.000000000000000000, 1.000000000000000000 ) ) ;
#13 = AXIS2_PLACEMENT_3D ( 'NONE', #181, #51, #12 ) ;
#14 = ORIENTED_EDGE ( 'NONE', *, *, #245, .T. ) ;
#15 = EDGE_LOOP ( 'NONE', ( #310, #161, #350, #75 ) ) ;
#16 = DIRECTION ( 'NONE',  ( -0.000000000000000000, 1.000000000000000000, -0.000000000000000000 ) ) ;
#17 = ORIENTED_EDGE ( 'NONE', *, *, #94, .F. ) ;
#18 = CARTESIAN_POINT ( 'NONE',  ( 7.225416114969383947E-17, 0.000000000000000000, -0.5899999999999999689 ) ) ;
#19 = EDGE_CURVE ( 'NONE', #207, #77, #281, .T. ) ;
#20 = AXIS2_PLACEMENT_3D ( 'NONE', #321, #109, #383 ) ;
#21 = PRODUCT_DEFINITION_FORMATION_WITH_SPECIFIED_SOURCE ( 'ANY', '', #337, .NOT_KNOWN. ) ;
#22 = ORIENTED_EDGE ( 'NONE', *, *, #133, .F. ) ;
#23 = CARTESIAN_POINT ( 'NONE',  ( 3.827021247335479543E-17, -0.1000000000000000056, -0.3125000000000000555 ) ) ;
#24 = CARTESIAN_POINT ( 'NONE',  ( 0.000000000000000000, 0.000000000000000000, 0.5899999999999999689 ) ) ;
#25 = CARTESIAN_POINT ( 'NONE',  ( 0.000000000000000000, 0.000000000000000000, 0.000000000000000000 ) ) ;
#26 = VECTOR ( 'NONE', #335, 39.37007874015748143 ) ;
#27 = ADVANCED_FACE ( 'NONE', ( #117 ), #237, .F. ) ;
#28 = DIMENSIONAL_EXPONENTS ( 1.000000000000000000, 0.000000000000000000, 0.000000000000000000, 0.000000000000000000, 0.000000000000000000, 0.000000000000000000, 0.000000000000000000 ) ;
#29 = AXIS2_PLACEMENT_3D ( 'NONE', #330, #365, #142 ) ;
#30 = LINE ( 'NONE', #370, #113 ) ;
#31 =( NAMED_UNIT ( * ) PLANE_ANGLE_UNIT ( ) SI_UNIT ( $, .RADIAN. ) );
#32 = DIRECTION ( 'NONE',  ( -0.000000000000000000, 1.000000000000000000, -0.000000000000000000 ) ) ;
#33 = DIRECTION ( 'NONE',  ( -0.000000000000000000, 1.000000000000000000, -0.000000000000000000 ) ) ;
#34 = FACE_OUTER_BOUND ( 'NONE', #131, .T. ) ;
#35 =( NAMED_UNIT ( * ) SI_UNIT ( $, .STERADIAN. ) SOLID_ANGLE_UNIT ( ) );
#36 = VECTOR ( 'NONE', #233, 39.37007874015748143 ) ;
#37 = SURFACE_STYLE_USAGE ( .BOTH. , #220 ) ;
#38 = VERTEX_POINT ( 'NONE', #262 ) ;
#39 = EDGE_LOOP ( 'NONE', ( #106, #10, #108, #8 ) ) ;
#40 = VECTOR ( 'NONE', #52, 39.37007874015748143 ) ;
#41 = EDGE_LOOP ( 'NONE', ( #9, #376 ) ) ;
#42 = ORIENTED_EDGE ( 'NONE', *, *, #171, .T. ) ;
#43 = EDGE_CURVE ( 'NONE', #353, #38, #314, .T. ) ;
#44 = VERTEX_POINT ( 'NONE', #135 ) ;
#45 = ADVANCED_FACE ( 'NONE', ( #329, #231 ), #78, .F. ) ;
#46 = DIRECTION ( 'NONE',  ( -0.000000000000000000, 1.000000000000000000, -0.000000000000000000 ) ) ;
#47 = CARTESIAN_POINT ( 'NONE',  ( 0.000000000000000000, -0.1000000000000000056, 0.000000000000000000 ) ) ;
#48 = FILL_AREA_STYLE ('',( #145 ) ) ;
#49 = EDGE_CURVE ( 'NONE', #44, #174, #203, .T. ) ;
#50 = ORIENTED_EDGE ( 'NONE', *, *, #245, .F. ) ;
#51 = DIRECTION ( 'NONE',  ( -0.000000000000000000, 1.000000000000000000, -0.000000000000000000 ) ) ;
#52 = DIRECTION ( 'NONE',  ( -0.000000000000000000, 1.000000000000000000, -0.000000000000000000 ) ) ;
#53 =( GEOMETRIC_REPRESENTATION_CONTEXT ( 3 ) GLOBAL_UNCERTAINTY_ASSIGNED_CONTEXT ( ( #347 ) ) GLOBAL_UNIT_ASSIGNED_CONTEXT ( ( #367, #31, #342 ) ) REPRESENTATION_CONTEXT ( 'NONE', 'WORKASPACE' ) );
#54 = VERTEX_POINT ( 'NONE', #136 ) ;
#55 = PLANE ( 'NONE',  #29 ) ;
#56 = ADVANCED_FACE ( 'NONE', ( #361 ), #201, .F. ) ;
#57 = CARTESIAN_POINT ( 'NONE',  ( 0.000000000000000000, -0.1776090763726898558, 0.000000000000000000 ) ) ;
#58 = DIRECTION ( 'NONE',  ( -0.000000000000000000, 1.000000000000000000, -0.000000000000000000 ) ) ;
#59 = APPLICATION_CONTEXT ( 'automotive_design' ) ;
#60 = CARTESIAN_POINT ( 'NONE',  ( 4.194415287079685308E-17, -0.1000000000000000056, -0.3425000000000000266 ) ) ;
#61 = DIRECTION ( 'NONE',  ( 0.000000000000000000, 0.000000000000000000, 1.000000000000000000 ) ) ;
#62 = CIRCLE ( 'NONE', #287, 0.3425000000000000266 ) ;
#63 = CARTESIAN_POINT ( 'NONE',  ( 4.194415287079685308E-17, 0.000000000000000000, -0.3425000000000000266 ) ) ;
#64 = PRESENTATION_STYLE_ASSIGNMENT (( #37 ) ) ;
#65 = CARTESIAN_POINT ( 'NONE',  ( 0.000000000000000000, -0.1199999999999999956, 0.000000000000000000 ) ) ;
#66 = DIRECTION ( 'NONE',  ( 0.000000000000000000, 0.000000000000000000, 1.000000000000000000 ) ) ;
#67 = DIRECTION ( 'NONE',  ( 0.000000000000000000, 0.000000000000000000, 1.000000000000000000 ) ) ;
#68 = SURFACE_STYLE_FILL_AREA ( #153 ) ;
#69 = MECHANICAL_DESIGN_GEOMETRIC_PRESENTATION_REPRESENTATION (  '', ( #223 ), #101 ) ;
#70 = ORIENTED_EDGE ( 'NONE', *, *, #84, .F. ) ;
#71 = ORIENTED_EDGE ( 'NONE', *, *, #11, .T. ) ;
#72 = FACE_OUTER_BOUND ( 'NONE', #194, .T. ) ;
#73 = ORIENTED_EDGE ( 'NONE', *, *, #385, .T. ) ;
#74 = VECTOR ( 'NONE', #333, 39.37007874015748143 ) ;
#75 = ORIENTED_EDGE ( 'NONE', *, *, #341, .F. ) ;
#76 = EDGE_CURVE ( 'NONE', #174, #226, #241, .T. ) ;
#77 = VERTEX_POINT ( 'NONE', #79 ) ;
#78 = PLANE ( 'NONE',  #369 ) ;
#79 = CARTESIAN_POINT ( 'NONE',  ( 0.000000000000000000, -1.250000000000000000, 0.3750000000000002220 ) ) ;
#80 = DIRECTION ( 'NONE',  ( 0.000000000000000000, 0.000000000000000000, 1.000000000000000000 ) ) ;
#81 = CARTESIAN_POINT ( 'NONE',  ( 0.000000000000000000, 0.000000000000000000, 0.3425000000000000266 ) ) ;
#82 = ORIENTED_EDGE ( 'NONE', *, *, #103, .F. ) ;
#83 = CARTESIAN_POINT ( 'NONE',  ( 0.000000000000000000, -0.1776090763726898558, 0.3750000000000001110 ) ) ;
#84 = EDGE_CURVE ( 'NONE', #165, #105, #62, .T. ) ;
#85 = DIRECTION ( 'NONE',  ( -0.000000000000000000, 1.000000000000000000, -0.000000000000000000 ) ) ;
#86 = LINE ( 'NONE', #324, #36 ) ;
#87 = DIRECTION ( 'NONE',  ( 0.000000000000000000, 0.2588190451025145222, 0.9659258262890699775 ) ) ;
#88 = LENGTH_MEASURE_WITH_UNIT ( LENGTH_MEASURE( 0.02539999999999999897 ), #184 );
#89 = PRODUCT_RELATED_PRODUCT_CATEGORY ( 'part', '', ( #337 ) ) ;
#90 = CARTESIAN_POINT ( 'NONE',  ( 0.000000000000000000, 0.000000000000000000, 0.000000000000000000 ) ) ;
#91 = CARTESIAN_POINT ( 'NONE',  ( 0.000000000000000000, 0.000000000000000000, 0.000000000000000000 ) ) ;
#92 = DIRECTION ( 'NONE',  ( 0.000000000000000000, -1.000000000000000000, 0.000000000000000000 ) ) ;
#93 = APPLICATION_PROTOCOL_DEFINITION ( 'draft international standard', 'automotive_design', 1998, #59 ) ;
#94 = EDGE_CURVE ( 'NONE', #105, #129, #112, .T. ) ;
#95 = DIMENSIONAL_EXPONENTS ( 1.000000000000000000, 0.000000000000000000, 0.000000000000000000, 0.000000000000000000, 0.000000000000000000, 0.000000000000000000, 0.000000000000000000 ) ;
#96 = DIRECTION ( 'NONE',  ( -0.000000000000000000, 1.000000000000000000, -0.000000000000000000 ) ) ;
#97 = DIRECTION ( 'NONE',  ( 0.000000000000000000, 0.000000000000000000, 1.000000000000000000 ) ) ;
#98 = EDGE_CURVE ( 'NONE', #353, #44, #30, .T. ) ;
#99 = ORIENTED_EDGE ( 'NONE', *, *, #126, .F. ) ;
#100 = AXIS2_PLACEMENT_3D ( 'NONE', #170, #232, #176 ) ;
#101 =( GEOMETRIC_REPRESENTATION_CONTEXT ( 3 ) GLOBAL_UNCERTAINTY_ASSIGNED_CONTEXT ( ( #180 ) ) GLOBAL_UNIT_ASSIGNED_CONTEXT ( ( #235, #332, #395 ) ) REPRESENTATION_CONTEXT ( 'NONE', 'WORKASPACE' ) );
#102 = EDGE_LOOP ( 'NONE', ( #22, #312, #313, #286 ) ) ;
#103 = EDGE_CURVE ( 'NONE', #129, #111, #121, .T. ) ;
#104 = CYLINDRICAL_SURFACE ( 'NONE', #210, 0.3425000000000000266 ) ;
#105 = VERTEX_POINT ( 'NONE', #396 ) ;
#106 = ORIENTED_EDGE ( 'NONE', *, *, #385, .F. ) ;
#107 = AXIS2_PLACEMENT_3D ( 'NONE', #366, #152, #67 ) ;
#108 = ORIENTED_EDGE ( 'NONE', *, *, #49, .T. ) ;
#109 = DIRECTION ( 'NONE',  ( -0.000000000000000000, 1.000000000000000000, -0.000000000000000000 ) ) ;
#110 = CYLINDRICAL_SURFACE ( 'NONE', #179, 0.3750000000000001665 ) ;
#111 = VERTEX_POINT ( 'NONE', #119 ) ;
#112 = LINE ( 'NONE', #81, #327 ) ;
#113 = VECTOR ( 'NONE', #87, 39.37007874015748143 ) ;
#114 = FACE_OUTER_BOUND ( 'NONE', #102, .T. ) ;
#115 = CARTESIAN_POINT ( 'NONE',  ( 0.000000000000000000, 0.000000000000000000, 0.000000000000000000 ) ) ;
#116 = CARTESIAN_POINT ( 'NONE',  ( 0.000000000000000000, 0.000000000000000000, 0.3750000000000001665 ) ) ;
#117 = FACE_OUTER_BOUND ( 'NONE', #222, .T. ) ;
#118 = EDGE_CURVE ( 'NONE', #226, #174, #217, .T. ) ;
#119 = CARTESIAN_POINT ( 'NONE',  ( 4.194415287079685308E-17, -7.582401355855259480E-33, -0.3425000000000000266 ) ) ;
#120 = CARTESIAN_POINT ( 'NONE',  ( 0.000000000000000000, -0.1000000000000000056, 0.000000000000000000 ) ) ;
#121 = CIRCLE ( 'NONE', #343, 0.3425000000000000266 ) ;
#122 = CARTESIAN_POINT ( 'NONE',  ( 0.000000000000000000, -7.582401355855259480E-33, 0.3425000000000000266 ) ) ;
#123 = CARTESIAN_POINT ( 'NONE',  ( 0.3125000000000000555, -0.1000000000000000056, 0.000000000000000000 ) ) ;
#124 = DIRECTION ( 'NONE',  ( -0.000000000000000000, 1.000000000000000000, -0.000000000000000000 ) ) ;
#125 = SHAPE_DEFINITION_REPRESENTATION ( #280, #259 ) ;
#126 = EDGE_CURVE ( 'NONE', #128, #7, #197, .T. ) ;
#127 =( CONVERSION_BASED_UNIT ( 'INCH', #334 ) LENGTH_UNIT ( ) NAMED_UNIT ( #95 ) );
#128 = VERTEX_POINT ( 'NONE', #4 ) ;
#129 = VERTEX_POINT ( 'NONE', #122 ) ;
#130 = AXIS2_PLACEMENT_3D ( 'NONE', #120, #16, #182 ) ;
#131 = EDGE_LOOP ( 'NONE', ( #268, #73, #144, #254 ) ) ;
#132 = EDGE_LOOP ( 'NONE', ( #164, #196, #298, #375 ) ) ;
#133 = EDGE_CURVE ( 'NONE', #38, #290, #364, .T. ) ;
#134 = CIRCLE ( 'NONE', #162, 0.3425000000000000266 ) ;
#135 = CARTESIAN_POINT ( 'NONE',  ( 0.000000000000000000, -0.1199999999999999956, 0.5899999999999999689 ) ) ;
#136 = CARTESIAN_POINT ( 'NONE',  ( 0.000000000000000000, -0.1000000000000000056, 0.3125000000000000555 ) ) ;
#137 = ADVANCED_FACE ( 'NONE', ( #212 ), #150, .T. ) ;
#138 = ORIENTED_EDGE ( 'NONE', *, *, #118, .T. ) ;
#139 = DIRECTION ( 'NONE',  ( 0.000000000000000000, 0.000000000000000000, 1.000000000000000000 ) ) ;
#140 = ORIENTED_EDGE ( 'NONE', *, *, #126, .T. ) ;
#141 = VECTOR ( 'NONE', #394, 39.37007874015748143 ) ;
#142 = DIRECTION ( 'NONE',  ( 0.000000000000000000, -0.000000000000000000, -1.000000000000000000 ) ) ;
#143 = STYLED_ITEM ( 'NONE', ( #64 ), #259 ) ;
#144 = ORIENTED_EDGE ( 'NONE', *, *, #76, .F. ) ;
#145 = FILL_AREA_STYLE_COLOUR ( '', #261 ) ;
#146 = DIRECTION ( 'NONE',  ( -0.000000000000000000, 1.000000000000000000, -0.000000000000000000 ) ) ;
#147 = SURFACE_STYLE_USAGE ( .BOTH. , #397 ) ;
#148 = CARTESIAN_POINT ( 'NONE',  ( 4.592425496802576068E-17, -0.1776090763726898558, -0.3750000000000001110 ) ) ;
#149 = CARTESIAN_POINT ( 'NONE',  ( 0.000000000000000000, -0.1776090763726898558, 0.000000000000000000 ) ) ;
#150 = CONICAL_SURFACE ( 'NONE', #251, 0.3750000000000001110, 1.308996938995753645 ) ;
#151 = PRESENTATION_LAYER_ASSIGNMENT (  '', '', ( #143 ) ) ;
#152 = DIRECTION ( 'NONE',  ( -0.000000000000000000, 1.000000000000000000, -0.000000000000000000 ) ) ;
#153 = FILL_AREA_STYLE ('',( #340 ) ) ;
#154 = DIRECTION ( 'NONE',  ( 0.000000000000000000, 0.000000000000000000, 1.000000000000000000 ) ) ;
#155 = LENGTH_MEASURE_WITH_UNIT ( LENGTH_MEASURE( 0.02539999999999999897 ), #402 );
#156 = DIRECTION ( 'NONE',  ( 0.000000000000000000, 0.000000000000000000, 1.000000000000000000 ) ) ;
#157 = DIRECTION ( 'NONE',  ( -0.000000000000000000, 1.000000000000000000, -0.000000000000000000 ) ) ;
#158 = AXIS2_PLACEMENT_3D ( 'NONE', #219, #96, #244 ) ;
#159 = ADVANCED_FACE ( 'NONE', ( #275 ), #246, .F. ) ;
#160 = ORIENTED_EDGE ( 'NONE', *, *, #103, .T. ) ;
#161 = ORIENTED_EDGE ( 'NONE', *, *, #19, .T. ) ;
#162 = AXIS2_PLACEMENT_3D ( 'NONE', #303, #239, #299 ) ;
#163 = ADVANCED_FACE ( 'NONE', ( #34 ), #271, .T. ) ;
#164 = ORIENTED_EDGE ( 'NONE', *, *, #43, .T. ) ;
#165 = VERTEX_POINT ( 'NONE', #60 ) ;
#166 = ORIENTED_EDGE ( 'NONE', *, *, #373, .T. ) ;
#167 = ADVANCED_FACE ( 'NONE', ( #300, #339 ), #403, .F. ) ;
#168 = AXIS2_PLACEMENT_3D ( 'NONE', #240, #124, #249 ) ;
#169 = CONICAL_SURFACE ( 'NONE', #5, 0.3750000000000001110, 1.308996938995753645 ) ;
#170 = CARTESIAN_POINT ( 'NONE',  ( 0.000000000000000000, -1.250000000000000000, 0.000000000000000000 ) ) ;
#171 = EDGE_CURVE ( 'NONE', #105, #165, #3, .T. ) ;
#172 = DIRECTION ( 'NONE',  ( -0.000000000000000000, 1.000000000000000000, -0.000000000000000000 ) ) ;
#173 = SURFACE_STYLE_FILL_AREA ( #48 ) ;
#174 = VERTEX_POINT ( 'NONE', #24 ) ;
#175 = DIRECTION ( 'NONE',  ( -0.000000000000000000, 1.000000000000000000, -0.000000000000000000 ) ) ;
#176 = DIRECTION ( 'NONE',  ( 0.000000000000000000, 0.000000000000000000, 1.000000000000000000 ) ) ;
#177 = CARTESIAN_POINT ( 'NONE',  ( 0.000000000000000000, -1.250000000000000000, 0.000000000000000000 ) ) ;
#178 = EDGE_CURVE ( 'NONE', #165, #111, #216, .T. ) ;
#179 = AXIS2_PLACEMENT_3D ( 'NONE', #319, #195, #211 ) ;
#180 = UNCERTAINTY_MEASURE_WITH_UNIT (LENGTH_MEASURE( 1.000000000000000082E-05 ), #235, 'distance_accuracy_value', 'NONE');
#181 = CARTESIAN_POINT ( 'NONE',  ( 0.000000000000000000, 0.000000000000000000, 0.000000000000000000 ) ) ;
#182 = DIRECTION ( 'NONE',  ( 0.000000000000000000, 0.000000000000000000, 1.000000000000000000 ) ) ;
#183 = DIRECTION ( 'NONE',  ( 0.000000000000000000, 0.000000000000000000, 1.000000000000000000 ) ) ;
#184 =( LENGTH_UNIT ( ) NAMED_UNIT ( * ) SI_UNIT ( $, .METRE. ) );
#185 = CARTESIAN_POINT ( 'NONE',  ( 0.000000000000000000, 0.000000000000000000, 0.000000000000000000 ) ) ;
#186 = MECHANICAL_DESIGN_GEOMETRIC_PRESENTATION_REPRESENTATION (  '', ( #143 ), #53 ) ;
#187 = CIRCLE ( 'NONE', #282, 0.3125000000000000555 ) ;
#188 = CARTESIAN_POINT ( 'NONE',  ( 0.000000000000000000, -1.250000000000000000, 0.000000000000000000 ) ) ;
#189 = DIRECTION ( 'NONE',  ( -0.000000000000000000, 1.000000000000000000, -0.000000000000000000 ) ) ;
#190 = EDGE_CURVE ( 'NONE', #77, #207, #382, .T. ) ;
#191 = AXIS2_PLACEMENT_3D ( 'NONE', #25, #175, #322 ) ;
#192 = EDGE_LOOP ( 'NONE', ( #140, #258 ) ) ;
#193 = PRODUCT_DEFINITION_CONTEXT ( 'detailed design', #59, 'design' ) ;
#194 = EDGE_LOOP ( 'NONE', ( #284, #294, #354, #160 ) ) ;
#195 = DIRECTION ( 'NONE',  ( -0.000000000000000000, 1.000000000000000000, -0.000000000000000000 ) ) ;
#196 = ORIENTED_EDGE ( 'NONE', *, *, #133, .T. ) ;
#197 = CIRCLE ( 'NONE', #168, 0.3125000000000000555 ) ;
#198 = AXIS2_PLACEMENT_3D ( 'NONE', #91, #61, #1 ) ;
#199 = ORIENTED_EDGE ( 'NONE', *, *, #84, .T. ) ;
#200 = ORIENTED_EDGE ( 'NONE', *, *, #11, .F. ) ;
#201 = CYLINDRICAL_SURFACE ( 'NONE', #273, 0.3125000000000000555 ) ;
#202 = AXIS2_PLACEMENT_3D ( 'NONE', #90, #306, #221 ) ;
#203 = LINE ( 'NONE', #391, #398 ) ;
#204 = CARTESIAN_POINT ( 'NONE',  ( 0.3750000000000002220, -1.250000000000000000, 0.000000000000000000 ) ) ;
#205 = CARTESIAN_POINT ( 'NONE',  ( 7.225416114969383947E-17, -0.1199999999999999956, -0.5899999999999999689 ) ) ;
#206 = EDGE_CURVE ( 'NONE', #290, #44, #228, .T. ) ;
#207 = VERTEX_POINT ( 'NONE', #278 ) ;
#208 = LINE ( 'NONE', #326, #40 ) ;
#209 = CARTESIAN_POINT ( 'NONE',  ( 0.000000000000000000, 0.000000000000000000, 0.000000000000000000 ) ) ;
#210 = AXIS2_PLACEMENT_3D ( 'NONE', #381, #352, #384 ) ;
#211 = DIRECTION ( 'NONE',  ( 0.000000000000000000, 0.000000000000000000, 1.000000000000000000 ) ) ;
#212 = FACE_OUTER_BOUND ( 'NONE', #132, .T. ) ;
#213 = ADVANCED_FACE ( 'NONE', ( #72 ), #104, .F. ) ;
#214 = CYLINDRICAL_SURFACE ( 'NONE', #292, 0.3750000000000001665 ) ;
#215 = ADVANCED_FACE ( 'NONE', ( #225 ), #110, .T. ) ;
#216 = LINE ( 'NONE', #63, #26 ) ;
#217 = CIRCLE ( 'NONE', #320, 0.5899999999999999689 ) ;
#218 = AXIS2_PLACEMENT_3D ( 'NONE', #149, #296, #270 ) ;
#219 = CARTESIAN_POINT ( 'NONE',  ( 0.000000000000000000, -0.1000000000000000056, 0.000000000000000000 ) ) ;
#220 = SURFACE_SIDE_STYLE ('',( #68 ) ) ;
#221 = DIRECTION ( 'NONE',  ( 0.000000000000000000, 0.000000000000000000, 1.000000000000000000 ) ) ;
#222 = EDGE_LOOP ( 'NONE', ( #200, #99, #166, #388 ) ) ;
#223 = STYLED_ITEM ( 'NONE', ( #272 ), #316 ) ;
#224 = EDGE_LOOP ( 'NONE', ( #42, #199 ) ) ;
#225 = FACE_OUTER_BOUND ( 'NONE', #15, .T. ) ;
#226 = VERTEX_POINT ( 'NONE', #18 ) ;
#227 = ORIENTED_EDGE ( 'NONE', *, *, #285, .F. ) ;
#228 = CIRCLE ( 'NONE', #297, 0.5899999999999999689 ) ;
#229 = VERTEX_POINT ( 'NONE', #23 ) ;
#230 = ADVANCED_FACE ( 'NONE', ( #392 ), #301, .T. ) ;
#231 = FACE_BOUND ( 'NONE', #192, .T. ) ;
#232 = DIRECTION ( 'NONE',  ( -0.000000000000000000, 1.000000000000000000, -0.000000000000000000 ) ) ;
#233 = DIRECTION ( 'NONE',  ( -0.000000000000000000, 1.000000000000000000, -0.000000000000000000 ) ) ;
#234 = EDGE_LOOP ( 'NONE', ( #349, #348, #257, #227 ) ) ;
#235 =( CONVERSION_BASED_UNIT ( 'INCH', #88 ) LENGTH_UNIT ( ) NAMED_UNIT ( #248 ) );
#236 = EDGE_CURVE ( 'NONE', #207, #38, #86, .T. ) ;
#237 = CYLINDRICAL_SURFACE ( 'NONE', #13, 0.3125000000000000555 ) ;
#238 = DIRECTION ( 'NONE',  ( 0.000000000000000000, 0.000000000000000000, 1.000000000000000000 ) ) ;
#239 = DIRECTION ( 'NONE',  ( -0.000000000000000000, 1.000000000000000000, -0.000000000000000000 ) ) ;
#240 = CARTESIAN_POINT ( 'NONE',  ( 0.000000000000000000, -1.250000000000000000, 0.000000000000000000 ) ) ;
#241 = CIRCLE ( 'NONE', #389, 0.5899999999999999689 ) ;
#242 = DIRECTION ( 'NONE',  ( -0.000000000000000000, 1.000000000000000000, -0.000000000000000000 ) ) ;
#243 = AXIS2_PLACEMENT_3D ( 'NONE', #355, #58, #139 ) ;
#244 = DIRECTION ( 'NONE',  ( 0.000000000000000000, 0.000000000000000000, 1.000000000000000000 ) ) ;
#245 = EDGE_CURVE ( 'NONE', #111, #129, #134, .T. ) ;
#246 = CYLINDRICAL_SURFACE ( 'NONE', #202, 0.3425000000000000266 ) ;
#247 = APPLICATION_PROTOCOL_DEFINITION ( 'draft international standard', 'automotive_design', 1998, #291 ) ;
#248 = DIMENSIONAL_EXPONENTS ( 1.000000000000000000, 0.000000000000000000, 0.000000000000000000, 0.000000000000000000, 0.000000000000000000, 0.000000000000000000, 0.000000000000000000 ) ;
#249 = DIRECTION ( 'NONE',  ( 0.000000000000000000, 0.000000000000000000, 1.000000000000000000 ) ) ;
#250 = CARTESIAN_POINT ( 'NONE',  ( 0.000000000000000000, -0.1000000000000000056, 0.000000000000000000 ) ) ;
#251 = AXIS2_PLACEMENT_3D ( 'NONE', #57, #146, #183 ) ;
#252 = FACE_OUTER_BOUND ( 'NONE', #234, .T. ) ;
#253 = ORIENTED_EDGE ( 'NONE', *, *, #178, .T. ) ;
#254 = ORIENTED_EDGE ( 'NONE', *, *, #49, .F. ) ;
#255 = AXIS2_PLACEMENT_3D ( 'NONE', #188, #32, #154 ) ;
#256 = ORIENTED_EDGE ( 'NONE', *, *, #260, .T. ) ;
#257 = ORIENTED_EDGE ( 'NONE', *, *, #43, .F. ) ;
#258 = ORIENTED_EDGE ( 'NONE', *, *, #379, .T. ) ;
#259 = ADVANCED_BREP_SHAPE_REPRESENTATION ( '736001', ( #316, #198 ), #267 ) ;
#260 = EDGE_CURVE ( 'NONE', #229, #54, #315, .T. ) ;
#261 = COLOUR_RGB ( '',0.6470588235294117974, 0.6196078431372549211, 0.5882352941176470784 ) ;
#262 = CARTESIAN_POINT ( 'NONE',  ( 4.592425496802576684E-17, -0.1776090763726898558, -0.3750000000000001110 ) ) ;
#263 = DIRECTION ( 'NONE',  ( 0.000000000000000000, 0.000000000000000000, 1.000000000000000000 ) ) ;
#264 = DIRECTION ( 'NONE',  ( 0.000000000000000000, 0.000000000000000000, 1.000000000000000000 ) ) ;
#265 = LINE ( 'NONE', #116, #309 ) ;
#266 = CLOSED_SHELL ( 'NONE', ( #163, #137, #393, #56, #159, #213, #167, #27, #45, #215, #302, #230, #311 ) ) ;
#267 =( GEOMETRIC_REPRESENTATION_CONTEXT ( 3 ) GLOBAL_UNCERTAINTY_ASSIGNED_CONTEXT ( ( #338 ) ) GLOBAL_UNIT_ASSIGNED_CONTEXT ( ( #127, #308, #35 ) ) REPRESENTATION_CONTEXT ( 'NONE', 'WORKASPACE' ) );
#268 = ORIENTED_EDGE ( 'NONE', *, *, #283, .T. ) ;
#269 = CARTESIAN_POINT ( 'NONE',  ( 3.827021247335479543E-17, -1.250000000000000000, -0.3125000000000000555 ) ) ;
#270 = DIRECTION ( 'NONE',  ( 0.000000000000000000, 0.000000000000000000, 1.000000000000000000 ) ) ;
#271 = CYLINDRICAL_SURFACE ( 'NONE', #107, 0.5899999999999999689 ) ;
#272 = PRESENTATION_STYLE_ASSIGNMENT (( #147 ) ) ;
#273 = AXIS2_PLACEMENT_3D ( 'NONE', #115, #85, #263 ) ;
#274 = DIRECTION ( 'NONE',  ( 0.000000000000000000, 0.000000000000000000, 1.000000000000000000 ) ) ;
#275 = FACE_OUTER_BOUND ( 'NONE', #380, .T. ) ;
#276 = DIRECTION ( 'NONE',  ( -0.000000000000000000, 1.000000000000000000, -0.000000000000000000 ) ) ;
#277 = DIRECTION ( 'NONE',  ( 0.000000000000000000, 0.000000000000000000, 1.000000000000000000 ) ) ;
#278 = CARTESIAN_POINT ( 'NONE',  ( 4.592425496802577300E-17, -1.250000000000000000, -0.3750000000000002220 ) ) ;
#279 = PRODUCT_CONTEXT ( 'NONE', #291, 'mechanical' ) ;
#280 = PRODUCT_DEFINITION_SHAPE ( 'NONE', 'NONE',  #345 ) ;
#281 = CIRCLE ( 'NONE', #100, 0.3750000000000002220 ) ;
#282 = AXIS2_PLACEMENT_3D ( 'NONE', #177, #157, #277 ) ;
#283 = EDGE_CURVE ( 'NONE', #44, #290, #356, .T. ) ;
#284 = ORIENTED_EDGE ( 'NONE', *, *, #178, .F. ) ;
#285 = EDGE_CURVE ( 'NONE', #77, #353, #265, .T. ) ;
#286 = ORIENTED_EDGE ( 'NONE', *, *, #206, .F. ) ;
#287 = AXIS2_PLACEMENT_3D ( 'NONE', #47, #172, #264 ) ;
#288 = ORIENTED_EDGE ( 'NONE', *, *, #373, .F. ) ;
#289 = ORIENTED_EDGE ( 'NONE', *, *, #19, .F. ) ;
#290 = VERTEX_POINT ( 'NONE', #205 ) ;
#291 = APPLICATION_CONTEXT ( 'automotive_design' ) ;
#292 = AXIS2_PLACEMENT_3D ( 'NONE', #185, #372, #274 ) ;
#293 = ORIENTED_EDGE ( 'NONE', *, *, #379, .F. ) ;
#294 = ORIENTED_EDGE ( 'NONE', *, *, #171, .F. ) ;
#295 = DIRECTION ( 'NONE',  ( -0.000000000000000000, 1.000000000000000000, 0.000000000000000000 ) ) ;
#296 = DIRECTION ( 'NONE',  ( -0.000000000000000000, 1.000000000000000000, -0.000000000000000000 ) ) ;
#297 = AXIS2_PLACEMENT_3D ( 'NONE', #65, #189, #156 ) ;
#298 = ORIENTED_EDGE ( 'NONE', *, *, #283, .F. ) ;
#299 = DIRECTION ( 'NONE',  ( 0.000000000000000000, 0.000000000000000000, 1.000000000000000000 ) ) ;
#300 = FACE_BOUND ( 'NONE', #41, .T. ) ;
#301 = CYLINDRICAL_SURFACE ( 'NONE', #191, 0.5899999999999999689 ) ;
#302 = ADVANCED_FACE ( 'NONE', ( #114 ), #169, .T. ) ;
#303 = CARTESIAN_POINT ( 'NONE',  ( 0.000000000000000000, -7.582401355855259480E-33, 0.000000000000000000 ) ) ;
#304 = AXIS2_PLACEMENT_3D ( 'NONE', #123, #92, #401 ) ;
#305 =( LENGTH_UNIT ( ) NAMED_UNIT ( * ) SI_UNIT ( $, .METRE. ) );
#306 = DIRECTION ( 'NONE',  ( -0.000000000000000000, 1.000000000000000000, -0.000000000000000000 ) ) ;
#307 = DIRECTION ( 'NONE',  ( -0.000000000000000000, 1.000000000000000000, -0.000000000000000000 ) ) ;
#308 =( NAMED_UNIT ( * ) PLANE_ANGLE_UNIT ( ) SI_UNIT ( $, .RADIAN. ) );
#309 = VECTOR ( 'NONE', #242, 39.37007874015748143 ) ;
#310 = ORIENTED_EDGE ( 'NONE', *, *, #236, .F. ) ;
#311 = ADVANCED_FACE ( 'NONE', ( #360, #362 ), #55, .F. ) ;
#312 = ORIENTED_EDGE ( 'NONE', *, *, #341, .T. ) ;
#313 = ORIENTED_EDGE ( 'NONE', *, *, #98, .T. ) ;
#314 = CIRCLE ( 'NONE', #20, 0.3750000000000001110 ) ;
#315 = CIRCLE ( 'NONE', #130, 0.3125000000000000555 ) ;
#316 = MANIFOLD_SOLID_BREP ( 'Revolve1', #266 ) ;
#317 = ORIENTED_EDGE ( 'NONE', *, *, #190, .F. ) ;
#318 = LINE ( 'NONE', #325, #141 ) ;
#319 = CARTESIAN_POINT ( 'NONE',  ( 0.000000000000000000, 0.000000000000000000, 0.000000000000000000 ) ) ;
#320 = AXIS2_PLACEMENT_3D ( 'NONE', #2, #276, #97 ) ;
#321 = CARTESIAN_POINT ( 'NONE',  ( 0.000000000000000000, -0.1776090763726898558, 0.000000000000000000 ) ) ;
#322 = DIRECTION ( 'NONE',  ( 0.000000000000000000, 0.000000000000000000, 1.000000000000000000 ) ) ;
#323 = EDGE_LOOP ( 'NONE', ( #317, #289 ) ) ;
#324 = CARTESIAN_POINT ( 'NONE',  ( 4.592425496802576684E-17, 0.000000000000000000, -0.3750000000000001665 ) ) ;
#325 = CARTESIAN_POINT ( 'NONE',  ( 3.827021247335479543E-17, 0.000000000000000000, -0.3125000000000000555 ) ) ;
#326 = CARTESIAN_POINT ( 'NONE',  ( 0.000000000000000000, 0.000000000000000000, 0.3125000000000000555 ) ) ;
#327 = VECTOR ( 'NONE', #307, 39.37007874015748143 ) ;
#328 = VECTOR ( 'NONE', #6, 39.37007874015748143 ) ;
#329 = FACE_OUTER_BOUND ( 'NONE', #323, .T. ) ;
#330 = CARTESIAN_POINT ( 'NONE',  ( 0.3425000000000000266, -3.791200677927629740E-33, 0.000000000000000000 ) ) ;
#331 = CARTESIAN_POINT ( 'NONE',  ( 0.000000000000000000, -7.582401355855259480E-33, 0.000000000000000000 ) ) ;
#332 =( NAMED_UNIT ( * ) PLANE_ANGLE_UNIT ( ) SI_UNIT ( $, .RADIAN. ) );
#333 = DIRECTION ( 'NONE',  ( 1.182917971378671814E-16, 0.2588190451025145222, -0.9659258262890699775 ) ) ;
#334 = LENGTH_MEASURE_WITH_UNIT ( LENGTH_MEASURE( 0.02539999999999999897 ), #305 );
#335 = DIRECTION ( 'NONE',  ( -0.000000000000000000, 1.000000000000000000, -0.000000000000000000 ) ) ;
#336 = CARTESIAN_POINT ( 'NONE',  ( 7.225416114969383947E-17, 0.000000000000000000, -0.5899999999999999689 ) ) ;
#337 = PRODUCT ( '736001', '736001', '', ( #279 ) ) ;
#338 = UNCERTAINTY_MEASURE_WITH_UNIT (LENGTH_MEASURE( 1.000000000000000082E-05 ), #127, 'distance_accuracy_value', 'NONE');
#339 = FACE_OUTER_BOUND ( 'NONE', #224, .T. ) ;
#340 = FILL_AREA_STYLE_COLOUR ( '', #399 ) ;
#341 = EDGE_CURVE ( 'NONE', #38, #353, #390, .T. ) ;
#342 =( NAMED_UNIT ( * ) SI_UNIT ( $, .STERADIAN. ) SOLID_ANGLE_UNIT ( ) );
#343 = AXIS2_PLACEMENT_3D ( 'NONE', #331, #368, #371 ) ;
#344 = EDGE_LOOP ( 'NONE', ( #293, #71, #256, #288 ) ) ;
#345 = PRODUCT_DEFINITION ( 'UNKNOWN', '', #21, #193 ) ;
#346 = CIRCLE ( 'NONE', #377, 0.3125000000000000555 ) ;
#347 = UNCERTAINTY_MEASURE_WITH_UNIT (LENGTH_MEASURE( 1.000000000000000082E-05 ), #367, 'distance_accuracy_value', 'NONE');
#348 = ORIENTED_EDGE ( 'NONE', *, *, #236, .T. ) ;
#349 = ORIENTED_EDGE ( 'NONE', *, *, #190, .T. ) ;
#350 = ORIENTED_EDGE ( 'NONE', *, *, #285, .T. ) ;
#351 = EDGE_LOOP ( 'NONE', ( #82, #50 ) ) ;
#352 = DIRECTION ( 'NONE',  ( -0.000000000000000000, 1.000000000000000000, -0.000000000000000000 ) ) ;
#353 = VERTEX_POINT ( 'NONE', #83 ) ;
#354 = ORIENTED_EDGE ( 'NONE', *, *, #94, .T. ) ;
#355 = CARTESIAN_POINT ( 'NONE',  ( 0.000000000000000000, -0.1199999999999999956, 0.000000000000000000 ) ) ;
#356 = CIRCLE ( 'NONE', #243, 0.5899999999999999689 ) ;
#357 = EDGE_LOOP ( 'NONE', ( #378, #138 ) ) ;
#358 = CARTESIAN_POINT ( 'NONE',  ( 0.000000000000000000, -0.1776090763726898558, 0.000000000000000000 ) ) ;
#359 = DIRECTION ( 'NONE',  ( -0.000000000000000000, 1.000000000000000000, -0.000000000000000000 ) ) ;
#360 = FACE_BOUND ( 'NONE', #351, .T. ) ;
#361 = FACE_OUTER_BOUND ( 'NONE', #344, .T. ) ;
#362 = FACE_OUTER_BOUND ( 'NONE', #357, .T. ) ;
#363 = PRESENTATION_LAYER_ASSIGNMENT (  '', '', ( #223 ) ) ;
#364 = LINE ( 'NONE', #148, #74 ) ;
#365 = DIRECTION ( 'NONE',  ( 0.000000000000000000, -1.000000000000000000, 0.000000000000000000 ) ) ;
#366 = CARTESIAN_POINT ( 'NONE',  ( 0.000000000000000000, 0.000000000000000000, 0.000000000000000000 ) ) ;
#367 =( CONVERSION_BASED_UNIT ( 'INCH', #155 ) LENGTH_UNIT ( ) NAMED_UNIT ( #28 ) );
#368 = DIRECTION ( 'NONE',  ( -0.000000000000000000, 1.000000000000000000, -0.000000000000000000 ) ) ;
#369 = AXIS2_PLACEMENT_3D ( 'NONE', #204, #295, #238 ) ;
#370 = CARTESIAN_POINT ( 'NONE',  ( 0.000000000000000000, -0.1776090763726898558, 0.3750000000000001110 ) ) ;
#371 = DIRECTION ( 'NONE',  ( 0.000000000000000000, 0.000000000000000000, 1.000000000000000000 ) ) ;
#372 = DIRECTION ( 'NONE',  ( -0.000000000000000000, 1.000000000000000000, -0.000000000000000000 ) ) ;
#373 = EDGE_CURVE ( 'NONE', #128, #54, #208, .T. ) ;
#374 = LINE ( 'NONE', #336, #328 ) ;
#375 = ORIENTED_EDGE ( 'NONE', *, *, #98, .F. ) ;
#376 = ORIENTED_EDGE ( 'NONE', *, *, #260, .F. ) ;
#377 = AXIS2_PLACEMENT_3D ( 'NONE', #250, #33, #66 ) ;
#378 = ORIENTED_EDGE ( 'NONE', *, *, #76, .T. ) ;
#379 = EDGE_CURVE ( 'NONE', #7, #128, #187, .T. ) ;
#380 = EDGE_LOOP ( 'NONE', ( #70, #253, #14, #17 ) ) ;
#381 = CARTESIAN_POINT ( 'NONE',  ( 0.000000000000000000, 0.000000000000000000, 0.000000000000000000 ) ) ;
#382 = CIRCLE ( 'NONE', #255, 0.3750000000000002220 ) ;
#383 = DIRECTION ( 'NONE',  ( 0.000000000000000000, 0.000000000000000000, 1.000000000000000000 ) ) ;
#384 = DIRECTION ( 'NONE',  ( 0.000000000000000000, 0.000000000000000000, 1.000000000000000000 ) ) ;
#385 = EDGE_CURVE ( 'NONE', #290, #226, #374, .T. ) ;
#386 = DIRECTION ( 'NONE',  ( 0.000000000000000000, 0.000000000000000000, 1.000000000000000000 ) ) ;
#387 = DIRECTION ( 'NONE',  ( -0.000000000000000000, 1.000000000000000000, -0.000000000000000000 ) ) ;
#388 = ORIENTED_EDGE ( 'NONE', *, *, #400, .T. ) ;
#389 = AXIS2_PLACEMENT_3D ( 'NONE', #209, #359, #386 ) ;
#390 = CIRCLE ( 'NONE', #218, 0.3750000000000001110 ) ;
#391 = CARTESIAN_POINT ( 'NONE',  ( 0.000000000000000000, 0.000000000000000000, 0.5899999999999999689 ) ) ;
#392 = FACE_OUTER_BOUND ( 'NONE', #39, .T. ) ;
#393 = ADVANCED_FACE ( 'NONE', ( #252 ), #214, .T. ) ;
#394 = DIRECTION ( 'NONE',  ( -0.000000000000000000, 1.000000000000000000, -0.000000000000000000 ) ) ;
#395 =( NAMED_UNIT ( * ) SI_UNIT ( $, .STERADIAN. ) SOLID_ANGLE_UNIT ( ) );
#396 = CARTESIAN_POINT ( 'NONE',  ( 0.000000000000000000, -0.1000000000000000056, 0.3425000000000000266 ) ) ;
#397 = SURFACE_SIDE_STYLE ('',( #173 ) ) ;
#398 = VECTOR ( 'NONE', #46, 39.37007874015748143 ) ;
#399 = COLOUR_RGB ( '',0.6470588235294117974, 0.6196078431372549211, 0.5882352941176470784 ) ;
#400 = EDGE_CURVE ( 'NONE', #54, #229, #346, .T. ) ;
#401 = DIRECTION ( 'NONE',  ( 0.000000000000000000, -0.000000000000000000, -1.000000000000000000 ) ) ;
#402 =( LENGTH_UNIT ( ) NAMED_UNIT ( * ) SI_UNIT ( $, .METRE. ) );
#403 = PLANE ( 'NONE',  #304 ) ;
ENDSEC;
END-ISO-10303-21;
